Song name
# A B C D E F G H I J K L M N O P Q R S T U V W X Y Z

Big Country - Balcony tab

This is the solo tab for the song 'Balcony' by Big Country. This was their first 
"B-side" to their 1st single 'Harvest Home'. This song was in the movie "Against All Odds"(so 
was Phil Collins's #1 hit 'Against All Odds') It is in the key of F.

h-hammer-on
p-pull-off
s-slide
~-ring

SOLO

e|-12h15p12-12h13p12-----------|-12h15p12-12h13p12------------|
B|-------------------15-12-----|-------------------15-12------|
G|-----------------------------|------------------------------|
D|-------------------------12s5|-------------------------12s14|
A|-----------------------------|------------------------------|
E|-----------------------------|------------------------------|

REPEAT 1ST BAR

e|-12h15p12-12h15p12-12s15-15h17p15-15s17-17h19p17-20p17-|
B|-------------------------------------------------------|
G|-------------------------------------------------------|
D|-------------------------------------------------------|
A|-------------------------------------------------------|
E|-------------------------------------------------------|



I also tabbed part of the outro to the song(Play several times)

OUTRO

e|------------------------------------------------------------------------|
B|---------------------------------------15-------------------------------|
G|-14-14-14-12--14-14-14-12--14-14-14-12----------------------------------|
D|------------------------------------------12--12-14-15-14--10-12--------|
A|-----------------------------------------------------------------12--10-|
E|------------------------------------------------------------------------|
Tap to rate this tab
# A B C D E F G H I J K L M N O P Q R S T U V W X Y Z