Song name
# A B C D E F G H I J K L M N O P Q R S T U V W X Y Z

Big D And The Kids Table - Jeremy tab

-----------------------------------------------------------------------------
			  Jeremy - Big D and the Kids Table
-----------------------------------------------------------------------------
Tabbed by: Tom Rose and his trusty sidekick.
Email:Allabouttheroots@msn.com

Tuning:EADGBe

/ = slide .

Chorus:

e|-5------7------5------|
B|-5------9------7------|
G|-6--X5--9--X2--7--X2--|
D|-7------9------7------|
A|-7------7------5------|
E|-5------7------5------|

Verse:

e|-5------/--7------/--5------/--7------|
B|-5------/--9------/--7------/--9------|
G|-6--X2--/--9--X2--/--7--X2--/--9--X2--|
D|-7------/--9------/--7------/--9------|
A|-7------/--7------/--5------/--7------|
E|-5------/--7------/--5------/--7------|


Tap to rate this tab
# A B C D E F G H I J K L M N O P Q R S T U V W X Y Z