Song name
# A B C D E F G H I J K L M N O P Q R S T U V W X Y Z

Big D And The Kids Table - Shining On tab

-------------------------------------------------------------------------------
               Shining On - Big D And The Kids Table
                         Strictly Rude
-------------------------------------------------------------------------------

Tabbed by: Panji Brotoisworo
Email: panji66(AT)hotmail.com (Replace the 'at')

E-mail me for comments or PM me on my UG Profile - "Esparko"


Legend

| /  slide up
| \  slide down
| b  Bend the string
| h  hammer-on
| p  pull-off
| ~  vibrato
| x  Mute note
================



Tuning: EADGBe



First off, there's that background guitar fill which has reverb and delay
added on to it, it is this.

e|--10--11----------|
B|--10--11----------|
G|--11--12----------|
D|------------------|
A|------------------|
E|------------------|




=======
Verse
=======

Both chords here are played on the upbeat twice before moving on.


e|----------6-------|
B|--8-------6-------|
G|--8-------7-------|
D|--8---------------|
A|------------------|
E|------------------|

========
Chorus
========

Each chord here is played for 4 times except for the last chord
which you strum.

e|----6--8--8-8-8-8---|   
B|-8--6--8--9-9-9-9---|
G|-8--7-----8-8-8-8---| 
D|-8------------------|
A|--------------------|
E|--------------------|


=============
Bridge (1:38)
=============
"Shining down on me..."

Just strum these once

e|----6--7-----|
B|----6--7-----|
G|----7--------|
D|-------------|
A|-------------|
E|-------------|

=======
Solo
=======

These are the chords played over solo
Play each chord 4 times except for the last 3 chords which you just 
strum.

e|----4--3--6--3--4--3--6--4--6--3----|
B|----4--4--6--4--4--4--6--4--6--4----|
G|----5--3--7--3--5--3--7--5--7--3----|
D|------------------------------------|
A|------------------------------------|
E|------------------------------------|





The verse riff is played followed by the chorus
and then it goes back to the final verse.

That's it.
Tap to rate this tab
 
# A B C D E F G H I J K L M N O P Q R S T U V W X Y Z