Song name
# A B C D E F G H I J K L M N O P Q R S T U V W X Y Z

Big D And The Kids Table - My Girlfriends On Drugs tab

--------------------------------------------------------------------
         My Girlfriend's on Drugs - Big D and the Kids Table 
--------------------------------------------------------------------

Tabbed by:danecook78	
Email: Crass78@aim.com

Tuning:eBGDAE


Last time I submitted a tab the format got screwed up and 
it erased half the lines so if it does it on this could 
someone tell me how to post them right.

The amount of times each chord is played may not be right
cause I don't really have good ears, but it's more accurate 
than the other tab and some of the chords are probably wrong, but I think it sounds OK.

Intro/Chorus

Part 1
e|------------------------------------------|
B|------------------------------------------|
G|------------------------------------------|
D|--99-99999-999-99999-999-9999999999999999-|
A|--99-99999-999-99999-999-9999999999999999-|
E|--77-77777-777-77777-777-7777777777777777-|
       .....     .....     ................

e|--------------------------------------|
B|--------------------------------------|
G|--------------------------------------|
D|--99-99999-999-99999-999-9-9-9-9-9-9--|
A|--99-99999-999-99999-999-9-9-9-9-9-9--|
E|--77-77777-777-77777-777-7-7-7-7-7-7--|
       .....     .....     

Part 2
e|----------------------------|
B|----------------------------|
G|------8888-9999-11111111----| X2
D|-9999-8888-9999-11111111----|
A|-9999-6666-7777--9-9-9-9----|
E|-7777-----------------------|

e|----------------------------------------------|
B|----------------------------------------------|
G|-------8-8-8-9-9-9-1111111111111111-----------|
D|-9-9-9-8-8-8-9-9-9-1111111111111111-9-99999---|
A|-9-9-9-6-6-6-7-7-7--9-9-9-9-9-9-9-9-9-99999---|
E|-7-7-7------------------------------7-77777---|
   .     .     .     

Part 3
e|-------------------|
B|-------------------|
G|-------------------|  x4
D|-------------------| 
A|--x6-7-9-4-7-6-----|
E|-7-------------7---|


Verses 
e|-x7x7x6x6--x7x7x7x7--x-9x-9x-9x-9---x7x7-x-9x-9----|
B|-x7x7x8x8--x9x9x9x9--x11x11x11x11---x9x9-x11x11----|
G|-x8x8x8x8--x9x9x9x9--x11x11x11x11---x9x9-x11x11----|
D|-x9x9x8x8--x9x9x9x9--x11x11x11x11---x9x9-x11x11----| X2
A|-x9x9x6x6--x7x7x7x7--x-9x-9x-9x-9---x7x7-x-9x-9----|
E|-x7x7x6x6--x7x7x7x7--x-9x-9x-9x-9---x7x7-x-9x-9----|

e|-777-666--x7x7x7x7--x-9x-9x-9x-9--x7x7-x-9x-9------|
B|-777-888--x9x9x9x9--x11x11x11x11--x9x9-x11x11------|
G|-888-888--x9x9x9x9--x11x11x11x11--x9x9-x11x11------| X2
D|-999-888--x9x9x9x9--x11x11x11x11--x9x9-x11x11------|
A|-999-666--x7x7x7x7--x-9x-9x-9x-9--x7x7-x-9x-9------|
E|-777-666--x7x7x7x7--x-9x-9x-9x-9--x7x7-x-9x-9------|

e|-------------------|
B|-------------------|
G|-------------------|  x4
D|-------------------| 
A|--x6-7-9-4-7-6-----|
E|-7-------------7---|

Then it just repeats two times and the chorus part 2 is played 3 times
Tap to rate this tab
# A B C D E F G H I J K L M N O P Q R S T U V W X Y Z