Song name
# A B C D E F G H I J K L M N O P Q R S T U V W X Y Z

Big D And The Kids Table - What The Hell Are You Going To Do tab

its probably the most complicated song on the album...


Yesterday my friends dad asked me,
one two three four!
                   click click click click

  what are your goals, what are your plans,
e -----------------------------------------|
B -----------------------------------------|
G -----------------------------------------|
D 5-----5----5-----5-----5-----5----5----5-|
A 5-----5----5-----5-----5-----5----5----5-|
E 3-----3----3-----3-----3-----3----3----3-|


what the hell are you going to do?
e ----------------------------------------|
B ----------------------------------------|
G ----------------------------------------|
D 5-----5----5-----5-----5-----5----------|
A 5-----5----5-----5-----5-----5----------|
E 3-----3----3-----3-----3-----3----------|


and i said i dont know.

e ----------------------------------------|
B ----------------------------------------|
G ----------------------------------------|
D ------------------------5---------------|
A ------------------------5---------------|
E ------------------------3---------------|
Tap to rate this tab
# A B C D E F G H I J K L M N O P Q R S T U V W X Y Z