Big D And The Kids Table - Chicago tab

e----------------------------|
B-/5--3-1-----3--------------|
G-/5--4-2-----3h4------------|
D---------4-2-----4--0-------|
A---------5-3-----4--2----p0-|
E----------------------------|


e----------------------------|
B------/8--6-5-3-----6-3--5--|
G------/9--7-5-3p4-4-7-4--5--|
D------------------5---------|
A----------------------------|
E----------------------------|
Tap to rate this tab
 
# A B C D E F G H I J K L M N O P Q R S T U V W X Y Z