Song name
# A B C D E F G H I J K L M N O P Q R S T U V W X Y Z

Big D And The Kids Table - Hell On Earth tab

----------------------------------------------------------------------------
		     Hell on Earth - Big D and the Kids Table
----------------------------------------------------------------------------
Tabbed by: Poacherinthezoo
Email: poacherinthezoo@yahoo.com

Tuning: standard

Acoustic part
    D      G      A     Em       D 
e|--2------3------0-------0-------2h3p2----------------------------------|
B|--3------3------2-------0-------3--------------------------------------|
G|--2------0------2-------0-------2--------------------------------------|
D|--0------0------2-------2-------0--------------------------------------|
A|---------2------0-------2----------------------------------------------|
E|---------3-------------0-----------------------------------------------|

Distored parts

e|---------------------------------------------------------------------|
B|---------------------------------------------------------------------|
G|-7--------9--7-------------------------------------------------------|
D|-7--5--7--9--7-------------------------------------------------------|
A|-5--5--7--7--5-------------------------------------------------------|
E|----3--5-------------------------------------------------------------|


Break Down

e|---------------------------------------------------------------------|
B|---------------------------------------------------------------------|
G|-------12--11--9--7--------------------------------------------------|
D|-------12--11--9--7--------------------------------------------------|
A|-5-7-9-10--9---7--5--------------------------------------------------|
E|---------------------------------------------------------------------|


The strum pattern is up  to you because I am lazy.
Tap to rate this tab
# A B C D E F G H I J K L M N O P Q R S T U V W X Y Z