Song name
# A B C D E F G H I J K L M N O P Q R S T U V W X Y Z

Big D And The Kids Table - She Knows Her Way tab

Big D and The Kids Table
She Knows Her Way
Strictly Rude

13-13-13-13-------------------------------------------------------|
--------------15-13-----------------------------------------------|
-------------------14-12-10-------------10-10------12-12-----10~~-|
---------------------------10-10---10h12------10h12-----10h12-----|
------------------------------------------------------------------|
------------------------------------------------------------------|


13-13-13-13----------------------13-13-13-13----------------------|
--------------15-13----------------------------15-13--------13b14-|
-------------------14-12-10-------------------------14-12~~-------|
---------------------------10-10----------------------------------|
------------------------------------------------------------------|
------------------------------------------------------------------|


13-13-13-13-------------------------------------------------------|
--------------15-13-----------------------------------------------|
-------------------14-12-10-------------10-10------12-12-----10~~-|
---------------------------10-10---10h12------10h12-----10h12-----|
------------------------------------------------------------------|
------------------------------------------------------------------|
Tap to rate this tab
# A B C D E F G H I J K L M N O P Q R S T U V W X Y Z