Song name
# A B C D E F G H I J K L M N O P Q R S T U V W X Y Z

Big Daddy Weave - What Life Would Be Like tab

Help us improve GuitareTab! Take a short survey!
E----------------------------------------------|
B---------9-10---12---10-9---9--7--5-4---------|
G-----6/9------------------9-----------4-------|
D----------------------------------------------|
A----------------------------------------------|
E----------------------------------------------|

E-----------------------------7----------------|
B---------9-10---12---10-9-----7--5-4----------|
G-----6/9------------------9-----------4-------|
D----------------------------------------------|
A----------------------------------------------|
E----------------------------------------------|
Related for What Life Would Be Like tab