Guitaretab - guitar tabs
Song name
# A B C D E F G H I J K L M N O P Q R S T U V W X Y Z

Big Daddy Weave - What Life Would Be Like tab

Big Daddy Weave
What Life Would Be Like

I am really sure this is correct... or at least it is more correct than the previous 
and the person who tried to correct it!

Have Fun!
Jesus Rules!

[ Tab from: http://www.guitaretab.com/b/big-daddy-weave/174778.html ]
E-------4-5-7-5-4---4------------------------|
B-----5-----------5---7-5-4-0----------------|
G---6----------------------------------------|
D--------------------------------------------|
A--------------------------------------------|
E--------------------------------------------|

E-------4-5-7-5-4---7------------------------|
B-----5-----------5---7-5-4-0----------------|
G---6----------------------------------------|
D--------------------------------------------|
A--------------------------------------------|
E--------------------------------------------|
Related for What Life Would Be Like tab