Song name
# A B C D E F G H I J K L M N O P Q R S T U V W X Y Z

Big Daddy Weave - What Life Would Be Like tab

----------------------------------------------------------------------------
			     SONG NAME - Big Daddy Weave
----------------------------------------------------------------------------
I saw these guys in concert where I was approximately 12 feet from Jeremy, so got
the chance to see first hand how it is truly played. Much easier than the other
two tab intro's, and sounds so much better. I even got the chance to speak to
Jeremy after the show. Enjoy


Tabbed by: ispthn777
Email: ispthn@msn.com

Tuning: Standard
                ~~           ~~        ~~
e|--------------------------------------------------------------------------|
B|-----------9--10---12--10--9------9---------------------------------------|
G|-------9-----------------------9-----11---9-\-8---------------------------|
D|-/ 11-------------------------------------------9-------------------------|
A|--------------------------------------------------------------------------|
E|--------------------------------------------------------------------------|
                ~~           ~~        ~~             ~~   ~~  ~~
B|-----------9--10---12--10--9------12--------------------------------------|
G|-------9-----------------------9-----11---9--8-----------9---8------------|
D|-/ 11-------------------------------------------9--9/11 ------------------|
A|--------------------------------------------------------------------------|
E|--------------------------------------------------------------------------|


/  slide up
| \  slide down
| h  hammer-on
| p  pull-off
| ~  vibrato
| +  harmonic
| x  Mute note
Tap to rate this tab
 
# A B C D E F G H I J K L M N O P Q R S T U V W X Y Z