Guitaretab - guitar tabs
Song name
# A B C D E F G H I J K L M N O P Q R S T U V W X Y Z

Big Dismal - Remember tab

--------------------------------------------------------------
                        REMEMBERóBIG DISMAL                   
--------------------------------------------------------------
Transcribed By : Brandon Philip Llapitan
Written By     : Czarina Camille Rivera
E-mail         : brandon_rakista@yahoo.com
Guitar 1       : Acoustic
Guitar 2       : Electric
Tuning Gtr1&2  : Drop D


100% Correct !!! The most accurate version..
Just listen to the song for the strumming...

Intro:
Gtr1   Em                  C           Am
eb-----------0-----------------------------------------------|
Bb-------3-----3---3-------------1----------0---1-0----------|
Gb-----0-------------0---0-----0---0------2---------2-0------|
Db-2-2-----2-----2-----2-----2-------------------------------|
Ab-------------------------3----------2-0--------------------|
Db-----------------------------------------------------------|
Then..
Gtr1   Em                  C           Am
eb-----------0-----------------------------------------------|
Bb-------3-----3---3-------------1----------0---1-0----------|
Gb-----0-------------0---0-----0---0------2---------2-0------|
Db-2-2-----2-----2-----2-----2-------------------------------|
Ab-------------------------3----------2-0--------------------|
Db-----------------------------------------------------------|
Gtr2   Em                  C           Am                    |
eb-----------------------------------------------------------|
Bb-----------------------------------------------------------|
Gb-------------------------5---------------------------------|
Db-----2-------------------5-----------7------------------2~-|
Ab-----2-------------------3-----------7------------------2~-|
Db-----2-------------------------------7------------------2~-|
[ Tab from: http://www.guitaretab.com/b/big-dismal/122315.html ]
Verse:
Gtr1   Em                  C           Am
eb-----------0-----------------------------------------------|
Bb-------3-----3---3-------------1----------0---1-0----------|
Gb-----0-------------0---0-----0---0------2---------2-0------|4x
Db-2-2-----2-----2-----2-----2-------------------------------|
Ab-------------------------3----------2-0--------------------|
Db-----------------------------------------------------------|

Chorus:
Gtr2  Em  C  Am
eb---------------|
Bb---------------|
Gb--------5------|2x
Db----2---5--7---|
Ab----2---3--7---|
Db----2------7---|

Intro 2:
Gtr1   Em                  C           Am
eb-----------0-----------------------------------------------|
Bb-------3-----3---3-------------1----------0---1-0----------|
Gb-----0-------------0---0-----0---0------2---------2-0------|
Db-2-2-----2-----2-----2-----2-------------------------------|
Ab-------------------------3----------2-0--------------------|
Db-----------------------------------------------------------|

Gtr1   Em                  C       D
eb-----------0-----------------------------------------------|
Bb-------3-----3---3-------------1h3333330-------------------|
Gb-----0-------------0---0-----0----222220-------------------|
Db-2-2-----2-----2-----2-----2-------------------------------|
Ab-------------------------3---------------------------------|
Db-----------------------------------------------------------|

Repeat Verse
Repeat Chorus 4x

Bridge:
                          C   Am
eb-----------------------------------------------------------|
Bb-----------------------------------------------------------|
Gb-11-12-7-77777----------5----------------------------------|
Db-x--x--x-xxxxx(3x)then--5---7------------------------------|
Ab-9--10-5-55555----------3---7------------------------------|
Db----------------------------7------------------------------|

Repeat Intro: Gtr 1 only..
Repeat Chorus 4x  thereís a chord D in this part Just listen to it..


Related for Remember tab