Guitaretab - guitar tabs
Song name
# A B C D E F G H I J K L M N O P Q R S T U V W X Y Z

Big Dismal - Rainy Days tab

Big Dismal
I See Love
The Passion of the Christ Songs

Intro/Verse: guitar 1
|---------------------------|
|---------------------------|
|---8--8--8--8--8--8-8--8---|
|----8--8--8--8--8-------8--|
|-6---6--6--6--6--6---6---6-|
|---------------------------| 


Timing not shown above but this is the riff


Chorus (strum pattern not shown):
|-----|-----|-------|---|--------|
|-----|-----|-------|---|--------|
|-8-8-|-----|-------|---|--------|
|-8-8-|-6-6-|-10-10-|-8-|-6-6----|
|-6-6-|-6-6-|-10-10-|-8-|-6-6----|
|-----|-4-4-|-8--8--|-6-|-4-4----|  
Occasionally through  ^
This in               |

Play after first chorus
|--------------------------|
|--------------------------|
|-12-13-12--12-13-12-------|
|--------------------------|
|--------------------------|
|--------------------------|
[ Tab from: http://www.guitaretab.com/b/big-dismal/52499.html ]
Before second chorus:
|--------------------------|
|--------------------------|
|--------------------------|
|-10-12-13-----------------|
|--------------------------|
|--------------------------|






Chorus outro (I can see you in the clouds)
----|               |-------|-------|
----|               |-------|-------|
----|               |-------|-3-3-3-|
-5--| < play once   |-3-3-3-|-3-3-3-|
-5--|               |-3-3-3-|-1-1-1-|
-3--|               |-1-1-1-|-------|

Won't you come and save the world:
|-----|-----|-------|------|------|
|-----|-----|-------|------|------|
|-8-8-|-----|-------|------|------|
|-8-8-|-6-6-|-10-10-|-6-6--|-8-8--| 
|-6-6-|-6-6-|-10-10-|-6-6--|-8-8--| 
|-----|-4-4-|-8--8--|-4-4--|-6-6--|   

|-------|-----|------|----|
|-------|-----|------|----|
|-------|-----|------|----|
|-10-10-|-8-8-|-6-6--|-5--|
|-10-10-|-8-8-|-6-6--|-5--|
|-8--8--|-6-6-|-4-4--|-3--|

Then chorus then it ends

excalibur627@hotmail.com
Related for Rainy Days tab
Rainy Days chords by Big Dismal