Song name
# A B C D E F G H I J K L M N O P Q R S T U V W X Y Z

Big Drill Car - Friend Of Mine tab

-------------------------------------------------------------------------
thank to jeff munt for this whom ever you are, i thought i would add to where more people might find it


e-|----------|------------------------------------------------------------
B-|----------|------------------------------------------------------------
G-|----------|------------------------------------------------------------
D-|-9-8------|-9-9-9-9-9-9-9-9-------------7-6-9-9-9-9-9-9-9-9------------
A-|-7-6-9--7-|-7-7-7-7-7-7-7-7-7-7-7-7-7-7-----7-7-7-7-7-7-7-7-7-7-7-7-7-7
E-|-----7--5-|-----------------5-5-5-5-5-5---------------------5-5-5-5-5-5

e-|----------------------------------------------------------------------|
B-|----------------------------------------------------------------------|
G-|----------------------------------------------------------------------|
D-|-7-6-9-9-9-9-9-9-9-9-------------7-6-9-9-9-9-9-9-9-9-------------7-6--|
A-|-----7-7-7-7-7-7-7-7-7-7-7-7-7-7-----7-7-7-7-7-7-7-7-7-7-7-7-7-7------|
E-|---------------------5-5-5-5-5-5---------------------5-5-5-5-5-5------|

e-|----------------------------------------------------------------------|
B-|----------------------------------------------------------------------|
G-|----------------------------------------------------------------------|
D-|----------------------------------------------------------------------|
A-|-4-4-6-6-7-7-7-7-7-7-4-4-6-6-7-7-7-7-7-7-4-4-6-6-7-7-7-7-7-7-7-7------|
E-|-2-2-4-4-5-5-5-5-5-5-2-2-4-4-5-5-5-5-5-5-2-2-4-4-5-5-5-5-5-5-5-5------|

e-|----------|------------------------------------------------------------
B-|----------|------------------------------------------------------------
G-|----------|------------------------------------------------------------
D-|-9-8------|-9-9-9-9-9-9-9-9-------------7-6-9-9-9-9-9-9-9-9------------
A-|-7-6-9--7-|-7-7-7-7-7-7-7-7-7-7-7-7-7-7-----7-7-7-7-7-7-7-7-7-7-7-7-7-7
E-|-----7--5-|-----------------5-5-5-5-5-5---------------------5-5-5-5-5-5

e-|----------------------------------------------------------------------|
B-|----------------------------------------------------------------------|
G-|----------------------------------------------------------------------|
D-|-7-6-9-9-9-9-9-9-9-9-------------7-6-9-9-9-9-9-9-9-9-------------7-6--|
A-|-----7-7-7-7-7-7-7-7-7-7-7-7-7-7-----7-7-7-7-7-7-7-7-7-7-7-7-7-7------|
E-|---------------------5-5-5-5-5-5---------------------5-5-5-5-5-5------|

e-|----------------------------------------------------------------------|
B-|----------------------------------------------------------------------|
G-|----------------------------------------------------------------------|
D-|----------------------------------------------------------------------|
A-|-4-4-6-6-7-7-7-7-7-7-4-4-6-6-7-7-7-7-7-7-4-4-6-6-7-7-7-7-7-7-7-7------|
E-|-2-2-4-4-5-5-5-5-5-5-2-2-4-4-5-5-5-5-5-5-2-2-4-4-5-5-5-5-5-5-5-5------|

e-|----------------------------------------------------------------------|
B-|----------------------------------------------------------------------|
G-|-----6-----4-----2-----2-----6-----4-----2-----2-----6-----4-----2----|
D-|---6-----4-----2-----2-----6-----4-----2-----2-----6-----4-----2---2--|
A-|-4-----2-----0-----0-----4-----2-----0-----0-----4-----2-----0-----2--|
E-|-------------------------------------------------------------------0--|

e-|----------------------------------------------------------------------|
B-|----------------------------------------------------------------------|
G-|----------------------------------------------------------------------|
D-|-9-9-9-9---------------------7---9-9-9-9---------------------7--------|
A-|-7-7-7-7-6-6-6-6-7-7-7-7-7-7---6-7-7-7-7-6-6-6-6-7-7-7-7-7-7---6------|
E-|---------4-4-4-4-5-5-5-5-5-5-------------4-4-4-4-5-5-5-5-5-5----------|

e-|-----------------------------------------------------------------------
B-|-----------------------------------------------------------------------
G-|-----------------------------------------------------------------------
D-|-9-9-9-9-9-9-9-9-------------7-6-9-9-9-9-9-9-9-9-----------------------
A-|-7-7-7-7-7-7-7-7-7-7-7-7-7-7-----7-7-7-7-7-7-7-7-7-7-7-7-7-7-----------
E-|-----------------5-5-5-5-5-5---------------------5-5-5-5-5-5-----------

e-|----------------------------------------------------------------------|
B-|----------------------------------------------------------------------|
G-|----------------------------------------------------------------------|
D-|-7-6-9-9-9-9-9-9-9-9-------------7-6-9-9-9-9-9-9-9-9-------------7-6--|
A-|-----7-7-7-7-7-7-7-7-7-7-7-7-7-7-----7-7-7-7-7-7-7-7-7-7-7-7-7-7------|
E-|---------------------5-5-5-5-5-5---------------------5-5-5-5-5-5------|

e-|-----------------------------------------------------------------|
B-|-----------------------------------------------------------------|
G-|-----------------------------------------------------------------|
D-|-----------------------------------------------------------------|
A-|-4-4-6-6-7-7-7-7-7-7-4-4-6-6-7-7-7-7-7-7-4-4-6-6-7-7-7-7-7-7-7-7-|
E-|-2-2-4-4-5-5-5-5-5-5-2-2-4-4-5-5-5-5-5-5-2-2-4-4-5-5-5-5-5-5-5-5-|

e-|------------------------------------------------------------
B-|------------------------------------------------------------
G-|-16-18^-18-16-14-13-13-14-13-11^-16-14-13----11----11-------
D-|------------------------------------------13----13----13-11-
A-|------------------------------------------------------------
E-|------------------------------------------------------------

e-|----------------------------------------------------|
B-|----------------------------------------------------|
G-|-18-16-16-14-14-13-13-11-13p11-11----11----11-------|
D-|----------------------------------13----13----13-11-|
A-|----------------------------------------------------|
E-|----------------------------------------------------|

e-|--------|-----------------------------------------------------------------
B-|--------|-----------------------------------------------------------------
G-|--------|-----------------------------------------------------------------
D-|-9-8----|-9-9-9-9---------------------7---9-9-9-9---------------------7---
A-|-7-6-9-7|-7-7-7-7-6-6-6-6-7-7-7-7-7-7---6-7-7-7-7-6-6-6-6-7-7-7-7-7-7---6-
E-|-----7-5|---------4-4-4-4-5-5-5-5-5-5-------------4-4-4-4-5-5-5-5-5-5-----

e-|-----------------------------------------------------------------|
B-|-----------------------------------------------------------------|
G-|-----------------------------------------------------------------|
D-|-9-9-9-9---------------------7---9-9-9-9---------------------7-6-|
A-|-7-7-7-7-6-6-6-6-7-7-7-7-7-7---6-7-7-7-7-6-6-6-6-7-7-7-7-7-7-----|
E-|---------4-4-4-4-5-5-5-5-5-5-------------4-4-4-4-5-5-5-5-5-5-----|


e-|-----------------------------------------------------------------|
B-|-----------------------------------------------------------------|
G-|-----------------------------------------------------------------|
D-|-----------------------------------------------------------------|
A-|-4-4-6-6-7-7-7-7-7-7-4-4-6-6-7-7-7-7-7-7-4-4-6-6-7-7-7-7-7-7-7-7-|
E-|-2-2-4-4-5-5-5-5-5-5-2-2-4-4-5-5-5-5-5-5-2-2-4-4-5-5-5-5-5-5-5-5-|

e-|-------------------------------------------------------------------------
B-|-------------------------------------------------------------------------
G-|-----6-----4-----2-----2-------------------------------------------------
D-|---6-----4-----2-----2---6-6-6-6-4-4-4-4-2-2-2-2-2-2-2-2-6-6-6-6-4-4-4-4-
A-|-4-----2-----0-----0-----4-4-4-4-2-2-2-2-0-0-0-0-0-0-0-0-4-4-4-4-2-2-2-2-
E-|-------------------------------------------------------------------------

e-|-------------------------|
B-|-------------------------|
G-|-------------------------|
D-|-2-2-2-2-2-2-2-2-6-6-6-6-|
A-|-0-0-0-0-0-0-0-0-4-4-4-4-|
E-|-------------------------|
Tap to rate this tab
# A B C D E F G H I J K L M N O P Q R S T U V W X Y Z