Guitaretab - guitar tabs
Song name
# A B C D E F G H I J K L M N O P Q R S T U V W X Y Z

Big Drill Car - In Green Fields tab

In Green Fields
Critters, ha, ha, ha, ha

e|--------------b9--b9--7---------------------7--7-9-7--------------|
B|-10-10-10-10------------10-9-7-7----/7-9-10----------10-9-7-------|
G|-9--9--9--9----------------------9-9/-----------------------9-----|
D|------------------------------------------------------------------|
A|------------------------------------------------------------------|
E|------------------------------------------------------------------|

e|-----------------------------------------------------------------|
B|-----------------------------------------------------------------|
G|-9-7-------------------------------------------------------------|
D|-----------------------------------------------------------------|
A|-----------------------------------------------------------------|
E|-----------------------------------------------------------------|
[ Tab from: http://www.guitaretab.com/b/big-drill-car/86239.html ]
Verse (A  F#  D)
I saw something I want and the thought of her still haunts and it won't go away,
I was so turned down I didn't want to say
Now miles from you and I don't think you knew How could you though
I ran real fast but I feel I walked to slow

Chorus
B	D	A
And it's hard to say from far away I want to see her in green fields 

In green fields

Verse
A darling face You know she ran the place and that was cool
I did a little move For I'd fear I'd lose before
And now I'm sad, she's the best thing I ever had And that's not right
It's been real fun But you got to say goodnight

Chorus
And it's hard to say from far away I want to see her in green fields 
In green fields

Bridge
Her face was shining Oh, man she looked so fine but I moved slow
Saw her before and I hope I see some more, but I don't know

Verse
Next time you're there please let her know I care And that will be fine
I know I will get back there in time 
And when I do, I'll see her walking through in green fields, yeah

Chorus
And it's hard to say from far away I want to see her in green fields 
In green fields
Related for In Green Fields tab