Song name
# A B C D E F G H I J K L M N O P Q R S T U V W X Y Z

Big Dumb Face - Duke Lion tab

TUNING: Standard (EADGBE) if you don't know standard tuning, you shouldn't be a guitar player.


INTRO:

E-------------------------------------------------------------4--2--|
A----4----444--444--444--444--444--444--2--1------------------------|
D-------------------------------------------------------------------|
G-------------------------------------------------------------------|
B-------------------------------------------------------------------|
E-------------------------------------------------------------------|

VERSE: (He's the son of man and God, Duke Lion...)

E--2--------------2---------------4------4----2-2-2----------------------------------------------4------2--|
A----------1-------------------4------4-----------------1-1--2-2---------4-444-444--2--1------1------------|
D----------------------------------------------------------------------1-1---------------------------------|
G----------------------------------------------------------------------------------------------------------|
B----------------------------------------------------------------------------------------------------------|
E----------------------------------------------------------------------------------------------------------|

DO INTRO AGAIN ONCE AND THEN THE VERSE AGAIN AND THEN AFTER THE SECOND VERSE, DO
THE INTRO
4 TIMES, THEN THE VERSE ONCE, THE INTRO ONCE AND THEN THE SOLO.  FOR THE SOLO, JUST
JAM OUT ON THE
FIRST FOUR STRINGS IN AN F# PENANTONIC UNTIL THE END OF THE SOLO WHEN YOU DO
THIS...

E------------------------------------------|
A------------------------------------------|
D------------------------------------------|
G------------------------------------------|
B---------------------------------------9--|
E--9--9--9--9--9--9--999--7--6-------------|

NOW DO THE VERSE ONCE AGAIN AND NOW THIS...

E-------------------------------------------------------------4--|
A----4----444--444--444--444--444--444--2--1---------------------|
D----------------------------------------------------------------| x7
G----------------------------------------------------------------|
B----------------------------------------------------------------|
E----------------------------------------------------------------|

AFTER THE LONG PAUSE, DO THE VERSE ONCE AND THEN THE OUTRO IS THE INTRO...

E-------------------------------------------------------------4--2--|
A----4----444--444--444--444--444--444--2--1------------------------|
D-------------------------------------------------------------------|
G-------------------------------------------------------------------|
B-------------------------------------------------------------------|
E-------------------------------------------------------------------|
Tap to rate this tab
 
# A B C D E F G H I J K L M N O P Q R S T U V W X Y Z