Song name
# A B C D E F G H I J K L M N O P Q R S T U V W X Y Z

Big Dumb Face - Blood Red Head On Fire tab

Tuning Standard C sharp  C# F# B E G# C# (low to high)


INTRO
C#----------------|
G#----------------|
E-----------------|
B--2--------------|
F#-2--------------|
C#-0--------------|

C#-------------------------------|
G#-------------------------------|
E--------------------------------|
B--2-2-2-2-2-2-2-2-2-2-2-2-2-2222|
F#-2-2-2-2-2-2-2-2-2-2-2-2-2-2222|
C#-0-0-0-0-0-0-0-0-0-0-0-0-0-0000|

C#----------------------------|
G#----------------------------|
E-----------------------------|
B--222-------222-------2------|
F#-222-------222-------2------|
C#-000-------000-------0------|
     BLOOD!     RED!    HEAD!

VERSE
C#-----------------------|
G#-----------------------|
E---------------------9b-|
B--22-2-22-2-22-2-2------|
F#-22-2-22-2-22-2-2---7b-|
C#-00-0-00-0-00-0-0------|

CHORUS
C#--------------------------------------------------|
G#--------------------------------------------------|
E---------------------------------------------------|
B--2-2-2-2-2-2-2-2---5-5-5-5-5-5-5-5---444443-3-3-3-|
F#-2-2-2-2-2-2-2-2---5-5-5-5-5-5-5-5---444443-3-3-3-|
C#-0-0-0-0-0-0-0-0---3-3-3-3-3-3-3-3---222221-1-1-1-|

INTERLUDE 
C#-------------------------------------------| 
G#---------------5^--------------------------| 
E----------3---------------------------------| 
B----2-------2-------------------------5--3--| 
F#---2--------------------1~-----------5--3--| 
C#---0---------------------------------3--1--|
Tap to rate this tab
# A B C D E F G H I J K L M N O P Q R S T U V W X Y Z