Song name
# A B C D E F G H I J K L M N O P Q R S T U V W X Y Z

Big Fat Snake - Still In Love With You tab

Still in love with you by Jonas Brothers.
I leave here I the solo of the song, enjoy!!!.

e|------------------------------------------------|
B|------15(Bend Full)--15-----15-----15-----------|
G|--14(Bend Full)--14-----14-----14-----14--------|
D|------------------------------------------------|
A|------------------------------------------------|
E|------------------------------------------------|

e|------------------------------------------------|
B|-------15---------------------------------------|
G|---14------14(BEND/REALESE)-12---14--12---------|
D|------------------------------------------------|
A|------------------------------------------------|
E|------------------------------------------------|

e|------------------------------------------------|
B|------------------------------------------------|
G|---14---12---12(BEND FULL)------12-----12-------|
D|----------------------------14------14-----14---|
A|------------------------------------------------|
E|------------------------------------------------|

e|------------------------------------------------|
B|--------------------------15---------12---------|
G|---12(BEND FULL)--------------------------------|
D|------------------------------------------------|
A|------------------------------------------------|
E|------------------------------------------------|

e|----------------------------------------------------------|
B|----------------------------------------------------------|
G|---14------12------------------------13-----------12------|
D|--------------------14----------11--------10---10------9--|
A|----------------------------------------------------------|
E|----------------------------------------------------------|

e|------------------------------------------------|
B|------------------------------------------------|
G|-------11-------9----12----11----9----11----9---|
D|---9-------11-----------------------------------|
A|------------------------------------------------|
E|------------------------------------------------|

	
This is the solo.
Note: Listen to the song about the pace of single, thanks!.
                                      By: Felipe-Jonas-B.



Tap to rate this tab
 
# A B C D E F G H I J K L M N O P Q R S T U V W X Y Z