Song name
# A B C D E F G H I J K L M N O P Q R S T U V W X Y Z

Big Fat Snake - Empty House tab

----------------------------------------------------------------------------
                               -Empty House-
----------------------------------------------------------------------------

Key:

 * : let ring
 PM: palm mute

intro/Verse:

e|-------------------------------------|
B|-------------------------------------|
G|--------4----------------4-----------|
D|----4------4---4-----4-----4---4-----|     <-Play riff X5
A|--7---7------7-----6---6-----6-------|
D|-------------------------------------|


e|-----------------------------------|
B|-----------------------------------|
G|--------4--------------4-----------|
D|----4-----4---4----4-----4---4-----| 
A|--1---1-----1----2---2-----2-------|
D|-----------------------------------| 


e|-------------------------------------|
B|-------------------------------------|
G|--------4----------------4-----------|
D|----4------4---4-----4-----4---4-----|     <-Play riff X3
A|--7---7------7-----6---6-----6-------|
D|-------------------------------------|


Chorus:

e|-----------------------------------|
B|-----------------------------------|
G|--------4--------------4--------4--|
D|----4-----4---4----4--------4------| 
A|--1---1-----1----2---2----1---1----|
D|-----------------------------------| 

                   
e|----------------------------------------------------|
B|----------------------------------------------------|
G|---------------------------3---------------4--------|
D|--------4-------4------4-----4---4-----4-----4---4--| <-Play riff X2
A|----6-------6---------------------------------------|
D|--6---6---4---4------1---1------1----2---2-----2----| 


continued.........................................

e|-----------------|                            ------          
B|--4--------------|                            --*4--   
G|----4----------4-|  <-Play this riff          --*4-- let ring on  
D|------4---4------|  once on after first       --*4--   second time
A|-----------------|     time]                  --*2-- 
D|--------2---2----|                            --*2--



Verse 2:

e|-------------------------------------|
B|-------------------------------------|
G|--------4----------------4-----------|
D|----4------4---4-----4-----4---4-----|     <-Play riff X3
A|--7---7------7-----6---6-----6-------|
D|-------------------------------------|


e|-----------------------------------|
B|-----------------------------------|
G|--------4--------------4-----------|
D|----4-----4---4----4-----4---4-----| 
A|--1---1-----1----2---2-----2-------|
D|-----------------------------------| 



e|-------------------------------------|
B|-------------------------------------|
G|--------4----------------4-----------|
D|----4------4---4-----4-----4---4-----|     <-Play riff X3
A|--7---7------7-----6---6-----6-------|
D|-------------------------------------|


Chorus:

e|-----------------------------------|
B|-----------------------------------|
G|--------4--------------4-----------|
D|----4-----4---4----4-----4---4-----| 
A|--1---1-----1----2---2-----2-------|
D|-----------------------------------| 



e|-----------------------------------|
B|-----------------------------------|
G|--------4--------------4--------4--|
D|----4-----4---4----4--------4------| 
A|--1---1-----1----2---2----1---1----|
D|-----------------------------------| 



e|-----------------------------------------------------------------|  Play
B|---------------------------------------------------4-------------|  riff
G|---------------------------3---------------4---------4---------4-|  X3
D|--------4-------4------4-----4---4-----4-----4---4-----4---4-----| 
A|----6-------6----------------------------------------------------|
D|--6---6---4---4------1---1------1----2---2-----2---------2---2---| 



e|----------------------|
B|----------------------|
G|----------------------|
D|---------4---------4--| 
A|-----6--------6-------|
D|---6---6----4---4-----| 


Bridge:

[Elec. Guitar]

e|----------------------------------|  
B|----------------------------------|  
G|----------------------------------|  
D|----------------------------------| 
A|--1-1-1-1-1-1-1-1---666--666--444-|
D|--1-1-1-1-1-1-1-1---666--555--444-| 

PM..................




e|--------------------------------------------------------|  
B|--------------------------------------------------------|  
G|--------------------------------------------------------|  
D|-------------------------------------2-2----------------| 
A|--4-4-4-4-4-4-4-4---222--222--222--2-0-0--666--666--444-|
D|--3-3-3-3-3-3-3-3---222--111--222--1------666--555--444-| 

PM..................


e|--------------------------------------------------------------------|  
B|--------------------------------------------------------------------|  
G|--------------------------------------------------------------------|  
D|-------------------------------------3-3-----------*9--*8--*9--*8---| 
A|--4-4-4-4-4-4-4-4---222--222--222--2-1-1--66-4-4---*9--*9--*9--*9---|
D|--3-3-3-3-3-3-3-3---222--111--222--1------66-4-4---*9--*8--*9--*8---| 

PM..................


Outro:

e|-------------------------------------|
B|-------------------------------------|
G|--------4----------------4-----------|
D|----4------4---4-----4-----4---4-----|     <-Play riff X3
A|--7---7------7-----6---6-----6-------|
D|-------------------------------------|



e|-----------------------------------|
B|-----------------------------------|
G|--------4--------------4-----------|    
D|----4-----4---4----4-----4---4-----| 
A|--1---1-----1----2---2-----2-------|
D|-----------------------------------| 



e|------          
B|-*4--   
G|-*4-- end on.
D|-*4--   
A|-*2-- 
D|-*2--

Tap to rate this tab
 
# A B C D E F G H I J K L M N O P Q R S T U V W X Y Z