Song name
# A B C D E F G H I J K L M N O P Q R S T U V W X Y Z

Big Foot Mama - Bandiera Rossa tab

-------------------------------------------------------------------------------
			     BANDIERA ROSSA - Big Foot Mama
-------------------------------------------------------------------------------

Artist/Band:Big Foot Mama
Song:Bandiera Rossa
Tabbed by:blah
E-mail:????
Home page:www.trzalica.com

Intro:

G---------------------------------------------------------------------------------
D----5--7--9-9-9--7--5--7--9-9-9---9--10--9--9-9---7-7-9---7-7--5-----------------
A--5------------------------------------------------------------------------------
E---------------------------------------------------------------------------------

G----------------------------------------------------------------------------------------
D----5--7--9-9-9--7--5--7--9-9-9---9--10--9--9-9---7-7-9---7-7--5---5---5-----5-5-5------
A--5------------------------------------------------------------------5---5----5-5-5-----
E----------------------------------------------------------------------------------------


       G5
Avanti popolo, Bandiera rossa, 
        D5		G5
alla riscosa, alla riscosa.
	G5
Avanti popolo, Bandiera rossa,
	D5	     G5	
alla riscosa, triumfera.

 G5			    D5
Bandiera rossa, alla triumfera
 D5		            G5
Bandiera rossa, alla triumfera
 G5 			    C5	
Bandiera rossa, alla triumfera

  
   C5	      G5          D5   G5
E viva il comunismo e la liberta !
   C5          G5        D5   G5	A5
E viva il comunismo e la liberta !

	  
     	 A5
Vogliamo fabbriche, vogliamo terra
	   E5	            A5
Ma senza guerra, ma senza guerra.
	 A5	
Vogliamo fabbriche, vogliamo terra
	   E5           A5
Ma senza guerra, triumfera.

 A5			    E5
Bandiera rossa, allla triumfera
 E5                         A5
Bandiera rossa, allla triumfera
 A5		            D5
Bandiera rossa, alla triumfera
    
   D5         A5         E5   A5
E viva il anarhismo e la liberta !
   D5         A5         E5    A5 
E viva il anarhismo e la liberta !

	
G5			
Avanti popolo, Bandiera rossa, 
        D5		G5
alla riscosa,  alla riscosa
	 
G5
Avanti popolo, Bandiera rossa,
        D5            G5
alla riscosa,  triumfera.

  G5			    D5	
Bandiera rossa, allla triumfera
  D5			    G5
Bandiera rossa, allla triumfera
  G5			    C5	
Bandiera rossa, alla triumfera

  C5          G5         D5   G5
E viva il comunismo e la liberta !
E viva il comunismo e la liberta !
(4x)

Thanks for your rating an comments =P

| /  slide up
| \  slide down
| h  hammer-on
| p  pull-off
| ~  vibrato
| +  harmonic
| x  Mute note
===============================================================================
Tap to rate this tab
# A B C D E F G H I J K L M N O P Q R S T U V W X Y Z