Song name
# A B C D E F G H I J K L M N O P Q R S T U V W X Y Z

Big Foot Mama - Oklep tab

Hi !  This is one of the best songs played by Slovenian band Big Foot Mama.

This is how you play it:



-------------------------------------------------|
-----3-----3----1----1------3-----3----3----1----|
----2-2-0-2-0--2-0--0-0----2-2-0-2-0--3-0--0-----|  a few times
---0----------3-----------0----------3-----------|
-------------------3----------------------3------|
-------------------------------------------------|



----------------------------------------------|
----------------------------------------------|
---77777777------------55555555--33333333-----|
---77777777--33333333--55555555--33333333-----|
---55555555--33333333--33333333--11111111-----|
-------------11111111-------------------------|



------------------------------------------|
------------------------------------------|
---77777777------------5xx55--3-3-3-3-3---|
---77777777--33333333--5xx55--3-3-3-3-3---|
---55555555--33333333--3xx33--1-1-1-1-1---|
-------------11111111---------------------|



I hope you like it ! ;)
Tap to rate this tab
# A B C D E F G H I J K L M N O P Q R S T U V W X Y Z