Song name
# A B C D E F G H I J K L M N O P Q R S T U V W X Y Z

Big Foot Mama - Uzitek Na Replay tab

-----------------------------------------------------------------------------
                     Big foot mama - Uzitek na replay
-----------------------------------------------------------------------------
Tabbed by: rok kroflic
E-mail: rok.kroflic@gmail.com

Tuning: standard

Intro and verse:
e|---------------------------------------------------------------------------|
B|---------------------------------------------------------------------------|
G|-7-7--77-------9-9--99-----------------------------------------------------|
D|-7-7--777-7--779-9--995-5-55555555-----------------------------------------|
A|-5-5--557-7--777-7--775-5-55555555-----------------------------------------|
E|--------5-5--55-------3-3-33333333-----------------------------------------|

Pre-Chorus (listen to find the strumming patern):
e|---------------------------------------------------------------------------|
B|---------------------------------------------------------------------------|
G|----4----7-----------------------------------------------------------------|
D|----4----7----7----5-------------------------------------------------------|
A|----2----5----7----5-------------------------------------------------------|
E|--------------5----3-------------------------------------------------------|

Chorus (listen to find the strumming patern):
e|---------------------------------------------------------------------------|
B|---------------------------------------------------------------------------|
G|----7----------------------------------------------------------------------|
D|----7----7----2----5-------------------------------------------------------|
A|----5----7----2----5-------------------------------------------------------|
E|---------5----0----3-------------------------------------------------------|

If you want to play the solo stuff use this tones and experiment to find more:
e|----------5---7---10-------------------------------------------------------|
B|----------5---7---10-------------------------------------------------------|
G|--------4-----7-9----------------------------------------------------------|
D|--------4-----7-9----------------------------------------------------------|
A|----------5---7-9----------------------------------------------------------|
E|----------5---7---10-------------------------------------------------------|

************************************

| /   slide up
| \   slide down
| h   hammer-on
| p   pull-off
| ~   vibrato
| +   harmonic
| x   Mute note
| b   Bend
| pb  Pre-bend
| br  Bend release
| pbr Pre-bend release
| brb Bend release bend

************************************
Tap to rate this tab
# A B C D E F G H I J K L M N O P Q R S T U V W X Y Z