Guitaretab - guitar tabs
Song name
# A B C D E F G H I J K L M N O P Q R S T U V W X Y Z

Big Foot Mama - Nisem Vec S Tabo tab

-------------------------------------------------------------------------------
			     Big Foot Mama - Nisem več s tabo
-------------------------------------------------------------------------------


Song:Nisem več s tabo
Artist:Big Foot Mama


Intro(2x):

e|---------------------------------------------------------------------------|
B|-----5-----6-----8-----6-----5------------12-------13-------15-------------|
G|-5-5---5-5---5-5---5-5---5-5---5----12-12----12-12----12-12----12-12-------|
D|---------------------------------------------------------------------------|
A|---------------------------------------------------------------------------|
E|---------------------------------------------------------------------------|

e|---------------------------------------------------------------------------|
B|-13-------12-------------13-------15-------17-------15-------13------------|
G|---12-12----12----14-14----14-14----14-14----14-14----14-14----14----------|
D|---------------------------------------------------------------------------|
A|---------------------------------------------------------------------------|
E|---------------------------------------------------------------------------|

e|---------------------------------------------------------------------------|
B|-------12-------13-------15-------13-------12------------------------------|
G|-12-12----12-12----12-12----12-12----12-12----12---------------------------|
D|---------------------------------------------------------------------------|
A|---------------------------------------------------------------------------|
E|---------------------------------------------------------------------------|

Verse:
C
Lohk' ti je žal za zvezde na nebu
G
lohk' ti je žal za nedolžne oči
     Am
tud' rože na oknu kmal ovenijo
       G
če jim vzameš toploto in ugasneš luči.

C
Nisem to'k nor, da bi kopu seb' jamo
G
nisem to'k star, da bi se mi kam mudil
Am
vse, kar sem hotu in želu od tebe
G
je, da se zjutri ob teb lohk' zbudim


e|---------------------------------------------------------------------------|
B|-----5-----6-----8-----6-----5------------12-------13-------15-------------|
G|-5-5---5-5---5-5---5-5---5-5---5----12-12----12-12----12-12----12-12-------|
D|---------------------------------------------------------------------------|
A|---------------------------------------------------------------------------|
E|---------------------------------------------------------------------------|

e|---------------------------------------------------------------------------|
B|-13-------12-------------13-------15-------17-------15-------13------------|
G|---12-12----12----14-14----14-14----14-14----14-14----14-14----14----------|
D|---------------------------------------------------------------------------|
A|---------------------------------------------------------------------------|
E|---------------------------------------------------------------------------|

e|---------------------------------------------------------------------------|
B|-------12-------13-------15-------13-------12------------------------------|
G|-12-12----12-12----12-12----12-12----12-12----12---------------------------|
D|---------------------------------------------------------------------------|
A|---------------------------------------------------------------------------|
E|---------------------------------------------------------------------------|

Verse:

C
Zate sem dihu, zate se hranu
G
pazu zaklade, hijene zavaju
Am
v temi sem gledu, v temi te branu
G
vse tvoje želje sem k soncu najavu

C
Z mano si cvetela, z mano bila si vse
G
skupaj sva čutila potrebo po še
Am
plesala si na soncu, bla si brez sramu
G
zdej pa tvoje sanje spijo na dežju

Chours:

C
Ne, ne nisem več s tabo
G
ne, ne ne bo me več tle
   Am
še zdej mi ni jasn zakaj si ubila
G
tist kar je nama pomen'l vse

C
Ne, ne nisem več s tabo
G
ne, ne ne bo me več tle
     Am
sam' neki boš mogla vedet za zmeri:
 G
ostal ti bo sam' moj srce!


e|---------------------------------------------------------------------------|
B|-----5-----6-----8-----6-----5------------12-------13-------15-------------|
G|-5-5---5-5---5-5---5-5---5-5---5----12-12----12-12----12-12----12-12-------|
D|---------------------------------------------------------------------------|
A|---------------------------------------------------------------------------|
E|---------------------------------------------------------------------------|

e|---------------------------------------------------------------------------|
B|-13-------12-------------13-------15-------17-------15-------13------------|
G|---12-12----12----14-14----14-14----14-14----14-14----14-14----14----------|
D|---------------------------------------------------------------------------|
A|---------------------------------------------------------------------------|
E|---------------------------------------------------------------------------|
[ Tab from: http://www.guitaretab.com/b/big-foot-mama/92813.html ]
e|---------------------------------------------------------------------------|
B|-------12-------13-------15-------13-------12------------------------------|
G|-12-12----12-12----12-12----12-12----12-12----12---------------------------|
D|---------------------------------------------------------------------------|
A|---------------------------------------------------------------------------|
E|---------------------------------------------------------------------------|

Verse:

C
Zate sem dihu, zate se hranu
G
pazu zaklade, hijene zavaju
Am
v temi sem gledu, v temi te branu
G
vse tvoje želje sem k soncu najavu

C
Z mano si cvetela, z mano bila si vse
G
skupaj sva čutila potrebo po še
Am
plesala si na soncu, bla si brez sramu
G
zdej pa tvoje sanje spijo na dežju

Chours:

C
Ne, ne nisem več s tabo
G
ne, ne ne bo me več tle
   Am
še zdej mi ni jasn zakaj si ubila
G
tist kar je nama pomen'l vse

C
Ne, ne nisem več s tabo
G
ne, ne ne bo me več tle
     Am
sam' neki boš mogla vedet za zmeri:
 G
ostal ti bo sam' moj srce!

Sam moj srce... 2x


e|---------------------------------------------------------------------------|
B|-----5-----6-----8-----6-----5------------12-------13-------15-------------|
G|-5-5---5-5---5-5---5-5---5-5---5----12-12----12-12----12-12----12-12-------|
D|---------------------------------------------------------------------------|
A|---------------------------------------------------------------------------|
E|---------------------------------------------------------------------------|

e|---------------------------------------------------------------------------|
B|-13-------12-------------13-------15-------17-------15-------13------------|
G|---12-12----12----14-14----14-14----14-14----14-14----14-14----14----------|
D|---------------------------------------------------------------------------|
A|---------------------------------------------------------------------------|
E|---------------------------------------------------------------------------|

e|---------------------------------------------------------------------------|
B|-------12-------13-------15-------13-------12------------------------------|
G|-12-12----12-12----12-12----12-12----12-12----12---------------------------|
D|---------------------------------------------------------------------------|
A|---------------------------------------------------------------------------|
E|---------------------------------------------------------------------------|

Ne, ne n'kol več,n'kol več (4x)
Ne n'kol več,n'kol več (4x)

Solo:

e|-------8-8--------8-8-----------------8-8-------------------------------------|
B|-------8-8--------8-8--------8--------8-8----------------8vv--8-8-8\3vv-------|
G|-10b12------10b12------10b12----10b12------10b12-10-8-10----------------------|
D|------------------------------------------------------------------------------|
A|------------------------------------------------------------------------------|
E|------------------------------------------------------------------------------|


e|-------------------------------------------------------8-8--------8-8---------|
B|---------------------------------------------8vv-------8-8--------8-8---------|
G|----5-7-5-7b9-7p5----------5-7b9-7-5-7-----/7----10b12------10b12-------------|
D|-/7---------------7---/5-7-------------5--------------------------------------|
A|------------------------------------------------------------------------------|
E|------------------------------------------------------------------------------|


e|-------8--------8-8--------8-8--------8---------------15--------15--------15--|
B|-------8--------8-8--------8-8--------8---------15b17-----15b17-----15b17-----|
G|-10b12----10b12------10b12------10b12-----------------------------------------|
D|------------------------------------------------------------------------------|
A|------------------------------------------------------------------------------|
E|------------------------------------------------------------------------------|


e|--------15--------------------------------------------------------------------|
B|--15b17-----15vv-------13-15b17r13-----13-15-----13-15-----13----15----13-----|
G|--------------------14--------------14--------14--------14----14----14--------|
D|------------------------------------------------------------------------------|
A|------------------------------------------------------------------------------|
E|------------------------------------------------------------------------------|


e|------------------------------------------------------------------------------|
B|-----------12-13-15---13-12--------12-13--------------------------------------|
G|-12vv---12-------------------12-14--------------------------------------------|
D|------------------------------------------------------------------------------|
A|------------------------------------------------------------------------------|
E|------------------------------------------------------------------------------|

Thanks for your rating and comments!:P

| /  slide up
| \  slide down
| h  hammer-on
| p  pull-off
| ~  vibrato
| +  harmonic
| x  Mute note
===============================================================================
Related for Nisem Vec S Tabo tab