Guitaretab - guitar tabs
Song name
# A B C D E F G H I J K L M N O P Q R S T U V W X Y Z

Big Foot Mama - Amazonija tab

Highlighted       Show chord diagrams
-------------------------------------------------------------------------------
			     AMAZONIJA- Big Foot Mama
-------------------------------------------------------------------------------

Artist/band:Big Foot Mama
Song:Amazonija
Tabbed by : Andraž Mehle [F(r)iend]
E-mail : a.satellite@gmail.com
Home page : www.trzalica.com

Intro:
G5, D5, E5
G5, D5, C5
G5, D5, E5
G5, D5, E5,D5,C5

Verse 1:

G		D          Em
Prvič s'm te sreču pr' izviru Amazonke
G	      D		Em
Reka je naplavla dragulje in kristale
G		D       Em
Bežu s'm pred kačo, padu u prepa-ad
G		 D      C
Na tirih s'm obležu, na tirih čakam vlak


Chours:

G5	 D5	  E5
UŽIVAM U MUKAH AMAZONIJE
G5	    D5	     C5
TRPIM U SLADKOSTIH - TVOJIH SADOV

G5	 D5	  E5
UŽIVAM U MUKAH AMAZONIJE
G5	     D5      E5     D5 C5
TRPIM U SLADKOSTIH - TVOJIH SADOV

Verse 2:
[ Tab from: http://www.guitaretab.com/b/big-foot-mama/92863.html ]
Čuden 'mam občutek, čudn' se mi zdi-i
Ves nebo dopoldan, že zgodi se stemni
Sliš'm šepetanja, v tirih prasketa-a
Da o voznem redu, boš ti odločala


Bridge:
Am,G (2x) 
C,D(2x)

Chours

A5	 E5	  F#5
UŽIVAM U MUKAH AMAZONIJE
A5	    E5	     D5
TRPIM U SLADKOSTIH - TVOJIH SADOV

A5	 E5	  F#5
UŽIVAM U MUKAH AMAZONIJE
A5	     E5      F#5    E5 D5
TRPIM U SLADKOSTIH - TVOJIH SADOV

Thanks for your rating and comments =P


 
 G5 D5 E5 C5 G  D Em  C Am  D* A5 F#5
e|-------------3--2--0--3--0--5----------------|
B|-------------3--3--0--5--1--7----------------|
G|----7--9--5--4--2--0--5--2--7-----11---------|
D|-5--7--9--5--5--0--2--5--2--7--7--11---------|
A|-5--5--7--3--5-----2--3--0--5--7--9----------|
E|-3-----------3-----0-----------5-------------|


| /  slide up
| \  slide down
| h  hammer-on
| p  pull-off
| ~  vibrato
| +  harmonic
| x  Mute note
===============================================================================
Related for Amazonija tab
×
Amazonija