Song name
# A B C D E F G H I J K L M N O P Q R S T U V W X Y Z

Big Foot Mama - Gole Sanje tab

Band / Artist :Big Foot Mama
Song title:Gole Sanje
Intro:

Guitar 1:

E|--------------------------------------|
B|--------------------------------------|
G|-----9-------7-------4--------2-------|
D|-----9-------7-------4--------2-------|
A|-----7-------5-------2--------0-------|
E|--------------------------------------|
      E5      D5      B5       A5

Verse 1:

Guitar 1:

E|--------------------------------------|
B|--------------------------------------|
G|-----9-------7-------4--------2-------| 2X
D|-----9-------7-------4--------2-------|
A|-----7-------5-------2--------0-------|
E|--------------------------------------|
      E5      D5      B5       A5

Guitar 2:

E|---------------------------------------|
B|---------------------------------------|
G|----9---9----9h11~---11--9-------------|   8X
D|---------------------------------------|
A|---------------------------------------|
E|---------------------------------------|

E5			   D5
Vsak vecer odbluzim ven trden in sam
B5			   A5
V zraku voham feromon, zadet od sladkih sanj
E5			 D5
Ker ta bitja, ne vem, a so iz nebes al iz pekla
B5			A5
Preiskunja za ego, za telo in za duha


Soncni pegli, crn lak in belo zlato
Gola koa, sve zadah mi seka na hudo
Ker ta scena kemicne reakcije pozna
Provocira, z zakoni moje fiz'ke se igra

Chours 1:

E|--------------------------------------------|
B|--------------------------------------------|
G|--------4------6---------------------4------|
D|---2----4------6----6----7-------2---4------|
A|---2----2------4----6----7-------2---2------|
E|---0----------------4----5-------0----------|
     E5   B5    C#5   G#5  A5      E5  B5

E5		   B5
FOLK PA MISL, DA SEM BOLAN
C#5		G#5
NE, SAM' FUL SEM EJEN
	      A5     E5    H5
IN MAL SEM ZASPAN OD GOLIH SANJ


Play intro again


Verse 2:

Vsako jutro mi moralc v glavi zvoni
Od pomanjkanja in lakote sem shuju do kosti
Ker je libido lahko e bolj strupen kot kacji pik
Bolecino v prsih ti olaja le dotik

Chours 2 (enak prvemu)
E5		   B5
FOLK PA MISL, DA SEM BOLAN
C#5		G#5
NE, SAM' FUL SEM EJEN
	      A5     E5    H5
IN MAL SEM ZASPAN OD GOLIH SANJ


Bridge:

E|-----------------------------------------------------------------|
B|-----------------------------------------------------------------|
G|-----------------9---7---4---2---4---7---------------------4~~~--|
D|---2---5---7-----9---7---4---2---4---7------2----5----7----4~~~--|
A|---2---5---7-----7---5---2---0---2---5------2----5----7----2~~~--|
E|---0---3---5--------------------------------0----3----5----------|
     E5  G5  A5    E5  D5  B5  A5  B5  D5     E5   G5   A5   B5


Chours 3: 2x

E5
DOTIK MI LAJA BOLEČINO
B5
DOTIK MI LAJA BOLEČINO
C#5
DOTIK MI LAJA BOLEČINO 
G#5
DOTIK MI LAJA BOLEČINO
A5
DOTIK MI LAJA BOLEČINO
   E5    B5
OD GOLIH SANJ
Tap to rate this tab
# A B C D E F G H I J K L M N O P Q R S T U V W X Y Z