Song name
# A B C D E F G H I J K L M N O P Q R S T U V W X Y Z

Big Foot Mama - Sam Prjatla tab

Band / Artist : Big Foot Mama
Song title : Sam Prjatla
Tabbed by:Fingi
E-mail:grega_fingi@hotmail.com
Home page : www.trzalica.com

Intro:                                              5x
e|----------------------------------|--------------------------------|
B|----------------------------------|--------------------------------|
G|-7-7-9-7-7-7-9-7-7-7-9-7-5-5-6-7--|-7-9-7-7-7-9-7-7-7-9-7-5-5-6-7--|
D|-5-5-5-5-5-5-5-5-5-5-5-5-3-3-4-5--|-5-5-5-5-5-5-5-5-5-5-5-3-3-4-5--|
A|----------------------------------|--------------------------------|
E|----------------------------------|--------------------------------|

Verse 1:

 G		     F F# G
Bil je dolgočasen dan 
 G		          F F# C	
Prjatlco sem sreču še ves zaspan
  C		     G	
Predlagu sem ji sam' eno stvar
    D                 G	
Če dons bi bil lahk njen vladar

e|----------------------------------|--------------------------------|
B|----------------------------------|--------------------------------|
G|-7-7-9-7-7-7-9-7-7-7-9-7-5-5-6-7--|-7-9-7-7-7-9-7-7-7-9-7-5-5-6-7--|
D|-5-5-5-5-5-5-5-5-5-5-5-5-3-3-4-5--|-5-5-5-5-5-5-5-5-5-5-5-3-3-4-5--|
A|----------------------------------|--------------------------------|
E|----------------------------------|--------------------------------|

Verse 2:

Greva punca k men domov
V mojo sobo pravzaprav
Naga bova pod oddejo šla
Oblubm, da se 'va sam' gledala

e|-------------------------------|
B|-------------------------------|
G|-7-7-9-7-7-7-9-7-7-7-9--7--6---|
D|-5-5-5-5-5-5-5-5-5-5-5--5--4---|
A|-------------------------------|
E|-------------------------------|

Chours:

   Em                D
Stisku te bom le za pas
  C                  G
Naga bova sam' za okras
   Em                D
Božu te bom le po nogah 
  C                  D
Drugje pa ne, nej nau te strah

 (F F#)       G
REKLA JE NE MOREM
 C       D  G	
KER SVA SAM' PRJATLA

e|----------------------------------|--------------------------------|
B|----------------------------------|--------------------------------|
G|-7-7-9-7-7-7-9-7-7-7-9-7-5-5-6-7--|-7-9-7-7-7-9-7-7-7-9-7-5-5-6-7--|
D|-5-5-5-5-5-5-5-5-5-5-5-5-3-3-4-5--|-5-5-5-5-5-5-5-5-5-5-5-3-3-4-5--|
A|----------------------------------|--------------------------------|
E|----------------------------------|--------------------------------|

Verse 3:

Oblubim ti nebesa, raj
Zakva čakala bi na maj
Naga bova pod oddejo šla
Oblubm, da se 'va sam' gledala

e|----------------------------------|--------------------------------|
B|----------------------------------|--------------------------------|
G|-7-7-9-7-7-7-9-7-7-7-9-7-5-5-6-7--|-7-9-7-7-7-9-7-7-7-9-7-5-5-6-7--|
D|-5-5-5-5-5-5-5-5-5-5-5-5-3-3-4-5--|-5-5-5-5-5-5-5-5-5-5-5-3-3-4-5--|
A|----------------------------------|--------------------------------|
E|----------------------------------|--------------------------------|

Verse 3:

Če me zrajcala boš močno
Le zdrku si ga bom z roko
Če mi bo pršlo na dlan
Oblubm, da se bom obrnu stran

e|-------------------------------|
B|-------------------------------|
G|-7-7-9-7-7-7-9-7-7-7-9--7--6---|
D|-5-5-5-5-5-5-5-5-5-5-5--5--4---|
A|-------------------------------|
E|-------------------------------|

Chours:

   Em                D
Stisku te bom le za pas
  C                  G
Naga bova sam' za okras
   Em                D
Božu te bom le po nogah 
  C                  D
Drugje pa ne, nej nau te strah

 (F F#)       G
REKLA JE NE MOREM
 C       D  G	
KER SVA SAM' PRJATLA


Solo:
C  G  F F# G    < 2x
D  A  G G# A
D  A  G  E


 (G G#)       A
REKLA JE NE MOREM
 D       E     A	
KER SVA SAM' PRJATLA

Thanks for your rating and comments =P
Tap to rate this tab
# A B C D E F G H I J K L M N O P Q R S T U V W X Y Z