Song name
# A B C D E F G H I J K L M N O P Q R S T U V W X Y Z

Big Head Todd And The Monsters - Bittersweet tab

Intro:                                                                 x4

e|--3--3~-3----x~-2---2-3-2-------------------------------------------------|
B|--0--0~-0----3~-3---3-3-3------1---0h1------------------------------------|
G|--0--0~-0----2~-2---2-2-2------2---1h2------------------------------------|
D|-------------0~-0---0---0---------------2---0--2--3--4--3--2--0-----------|
A|3----------------------------------------3-----------------------3--------|
E|--------------------------------------------------------------------------|

Verse (softer):                                                        x6

e|--3--3~-3----x~-2---2-3-2-------------------------------------------------|
B|--0--0~-0----3~-3---3-3-3------1---0h1------------------------------------|
G|--0--0~-0----2~-2---2-2-2------2---1h2------------------------------------|
D|-------------0~-0---0---0---------------2---0--2--3--4--3--2--0-----------|
A|-----------------------------------------3-----------------------3--------|
E|--------------------------------------------------------------------------|

Chorus                                                                 x4

e|--3--3~-3----x~-2---2-3-2-------------------------------------------------|
B|--0--0~-0----3~-3---3-3-3------1---0h1------------------------------------|
G|--0--0~-0----2~-2---2-2-2------2---1h2------------------------------------|
D|-------------0~-0---0---0---------------2---0--2--3--4--3--2--0-----------|
A|-----------------------------------------3-----------------------3--------|
E|--------------------------------------------------------------------------|

Bridge:

e|-------------------------------------------1~-----------------------------|
B|---------------3~------------------3~-------------------------------------|
G|-------------2-------------------------0----------------------------------|
D|--------0~----------------0---2-3----3------------------------------------|
A|--0~--3-------------0-3-2---3---------------------------------------------|
E|--------------------------------------------------------------------------|

Verse:                                                                 x6

e|--3--3~-3----x~-2---2-3-2-------------------------------------------------|
B|--0--0~-0----3~-3---3-3-3------1---0h1------------------------------------|
G|--0--0~-0----2~-2---2-2-2------2---1h2------------------------------------|
D|-------------0~-0---0---0---------------2---0--2--3--4--3--2--0-----------|
A|-----------------------------------------3-----------------------3--------|
E|--------------------------------------------------------------------------|

Chorus:                                                                x4

e|--3--3~-3----x~-2---2-3-2-------------------------------------------------|
B|--0--0~-0----3~-3---3-3-3------1---0h1------------------------------------|
G|--0--0~-0----2~-2---2-2-2------2---1h2------------------------------------|
D|-------------0~-0---0---0---------------2---0--2--3--4--3--2--0-----------|
A|-----------------------------------------3-----------------------3--------|
E|--------------------------------------------------------------------------|

Bridge:

e|-------------------------------------------1~---1~--1~--1~-1~-1~-1~-1~-1-1-|
B|---------------3~------------------3~--------------------------------------|
G|-------------2-------------------------0-----0----0---0---0--0--0--0--0-0--|
D|--------0~----------------0---2-3----3-------------------------------------|
A|--0~--3-------------0-3-2---3----------------------------------------------|
E|---------------------------------------------------------------------------|

Solo:                                                                    x2

e|---------------------------------------------------------------------------|
B|-----6---6--6--6-----------------4-6~---6~---6--6--6------------------4-6~-|
G|----9-----------8---8~----5-7~--5--------------------8---8~----5-7~--5-----|
D|---7---7--7--7-----------6-----5-------7----7--7--7-----------6-----5------|
A|------------------------5------------------------------------5-------------|
E|---------------------------------------------------------------------------|

e|-12-15-15-15-12-15-15-15-15-15-15-15-15-15-15-15-15-15-15-15-15-15-15-15--|
B|--------------------------------------------------------------------------|
G|--------------------------------------------------------------------------|
D|--------------------------------------------------------------------------|
A|--------------------------------------------------------------------------|
E|--------------------------------------------------------------------------|

e|--9-9-9---7-7-7-----------------9-9-9---11-11-11---13-13-13---15-15-15----|
B|--7-7-7---5-5-5---9-9-9---7-7---7-7-7----9--9--9---11-11-11---13-13-13----|
G|------------------7-7-7---5-5---------------------------------------------|
D|--------------------------------------------------------------------------|
A|--------------------------------------------------------------------------|
E|--------------------------------------------------------------------------|

e|15--15-15-15--15-15-15--15-15-15--13-13-13--15-15-15--13-13-13---15-15-15-|
B|--------------------------------------------------------------------------|
G|--------------------------------------------------------------------------|
D|--------------------------------------------------------------------------|
A|--------------------------------------------------------------------------|
E|--------------------------------------------------------------------------|

Verse:                                                                 x6

e|--3--3~-3----x~-2---2-3-2-------------------------------------------------|
B|--0--0~-0----3~-3---3-3-3------1---0h1------------------------------------|
G|--0--0~-0----2~-2---2-2-2------2---1h2------------------------------------|
D|-------------0~-0---0---0---------------2---0--2--3--4--3--2--0-----------|
A|-----------------------------------------3-----------------------3--------|
E|--------------------------------------------------------------------------|

Chorus:                                                                x4

e|--3--3~-3----x~-2---2-3-2-------------------------------------------------|
B|--0--0~-0----3~-3---3-3-3------1---0h1------------------------------------|
G|--0--0~-0----2~-2---2-2-2------2---1h2------------------------------------|
D|-------------0~-0---0---0---------------2---0--2--3--4--3--2--0-----------|
A|-----------------------------------------3-----------------------3--------|
E|--------------------------------------------------------------------------|

Bridge:

e|-------------------------------------------1~---1~---1~--1-----1~~~-------|
B|---------------3~------------------3~-------------------------------------|
G|-------------2-------------------------0-------0----0---0-0---------------|
D|--------0~----------------0---2-3----3------------------------------------|
A|--0~--3-------------0-3-2---3---------------------------------------------|
E|--------------------------------------------------------------------------|
Tap to rate this tab
 
# A B C D E F G H I J K L M N O P Q R S T U V W X Y Z