Song name
# A B C D E F G H I J K L M N O P Q R S T U V W X Y Z

Big Head Todd - Dinner With Ivan tab

Alright this is not that random song that i put in above this is a song i made
for my friend. so dont put bull shit comments on saying wtf? THIS ISNT DINNER WITH IVAN!

E--------------------------------------------------------------------------|
B--------------------------------------------------------------------------|
D------------------------------------------5---------------5b7~--5---------|
G-------------------------------5---7~---7----7---5~---5h7----------7---5~-|
A---------------------------5h7--------------------------------------------|
E--------------------5~---5------------------------------------------------|

E--------------------------------------------------------------------------|
B-------------5b7~--5------------------------------------------------------|
D--------5h7-----------------------5h7p5-----------------------------------|
G---5h7----------------7--5~---5h7---------7--5----5--7--5-----------------|
A------------------------------------------------7-----------7--5~---------|
E-------------------------------------------------------------------7~--5~-|

The end for ivan love reid
Tap to rate this tab
 
# A B C D E F G H I J K L M N O P Q R S T U V W X Y Z