Song name
# A B C D E F G H I J K L M N O P Q R S T U V W X Y Z

Big Punisher - Watch Those tab

This is the only guitar parts to the song

e----------------------------|
B----------------------------|
G----5~~~-7~~----------------|
D----5~~~-7~~--5--7--x7-x7---|
A----3~~~-5~~--5--7--x7-x7---|
E--------------3--5--x5-x5---|

e----------------------------|
B----------------------------|
G---5-5~~~-7~~---------------|
D---5-5~~~-7~~--5--7--x7-x7--|
A---3-3~~~-5~~--5--7--x7-x7--|
E---------------3--5--x5-x5--|
Tap to rate this tab
# A B C D E F G H I J K L M N O P Q R S T U V W X Y Z