Song name
# A B C D E F G H I J K L M N O P Q R S T U V W X Y Z

Big Punisher - Leather Face tab

The following is a tab of the major riff that goes throughout the whole Song

e----------------------------|
B----------------------------|
G----------------------------|
D--------5~---5-7p5----------|
A--5--7-------------8-7--5~--|
E----------------------------|

e----------------------------|
B----------------------------|
G----------------------------|
D--------------7--7----------|
A--5--7--8~-----8----8s10~---|
E----------------------------|
Tap to rate this tab
 
# A B C D E F G H I J K L M N O P Q R S T U V W X Y Z