Song name
# A B C D E F G H I J K L M N O P Q R S T U V W X Y Z

Big Scary - Thinking About You tab

I tried to make a tab based on how I play the song. This is my first tab so please be kind.

CAPO 2

Verse 1

E|--------------------------------------------|
B|---------1---------1---------1----------1---|
G|-0--2------2--0------------2---2---0--------|
D|-------2---------2--------------------2-----|
A|----0------------------------------3--------|
E|--------------3-------0-1-------------------|  x7


Chorus
E|-----3-0-------3-0-------1-0----------------|
B|---1---------1---------1---------1-3-1------|
G|--------------------------------------------|
D|--------------------------------------------|
A|-0-----------------------------3------------|
E|-----------3---------1----------------------|  x2

Verse 2
E|--------------------------------------------|
B|---------1---------1---------1----------1---|
G|-0--2------2--0------------2---2---0--------|
D|-------2---------2--------------------2-----|
A|----0------------------------------3--------|
E|--------------3-------0-1-------------------|  x6

Chorus
E|-----3-0-------3-0-------1-0----------------|
B|---1---------1---------1---------1-3-1------|
G|--------------------------------------------|
D|--------------------------------------------|
A|-0-----------------------------3------------|
E|-----------3---------1----------------------|  x2

Chords in the middle of the song
E|--0----------------------------------0-----|
B|--1----------------------------------1-----|
G|--2----------------------------------0-----|
D|--2----------------------------------2-----|
A|--0----------------------------------0-----|
E|--0----------------------------------3-----|  x3

E|--------------------------------------------|
B|--------------------------------------------|
G|--------------------------------------------|
D|--------------------------------------------|
A|--3---3---3-3---3---3---3--2--0-------------|
E|--------------------------------------------| x1

Back to verse 1 --> x2
        chorus  --> x2

End
E|-----3-5-------3-0-------1-0----------------|
B|---1---------1---------1---------1-3-1------|
G|--------------------------------------------|
D|--------------------------------------------|
A|-0-----------------------------3------------|
E|-----------3---------1----------------------|  x2
Tap to rate this tab
# A B C D E F G H I J K L M N O P Q R S T U V W X Y Z