Song name
# A B C D E F G H I J K L M N O P Q R S T U V W X Y Z

Big Science Music - John 117 Monument tab

Hey everyone, this is basicly the entire song on the violins part. Just listen to 
the song to get the timeing right and you'll be fine. Enjoy

e|-----------3-3---6-6--3-3---------|-----3-3---6-8------6-6--------3-------|
B|-------3--------------------6-6---|----3---------6-6------6--4-4h6--h6-4-3|
G|---3------------------------------|--3------------------------------------|
D|----------------------------------|---------------------------------------|
A|----------------------------------|---------------------------------------| x2
E|----------------------------------|---------------------------------------| 

e|----------------------------------|-------------3--------------------------|
B|---3-4-4----6-6--4-4-3------------|---3-4-4---6---3---4-4-3-1--3-----------|
G|-3--------------------------------|-3--------------------------------------|
D|----------------------------------|----------------------------------------|
A|----------------------------------|----------------------------------------|
E|----------------------------------|----------------------------------------|

e|--------------------------------------------3--6-6--3-3--------------------|
B|-3h6-3h6-3h6-3h6-3h6-3----3h6-3h6--3h6--3h6--------------6-6---------------|
G|---------------------------------------------------------------------------|
D|---------------------------------------------------------------------------|
A|---------------------------------------------------------------------------|
E|---------------------------------------------------------------------------|

e|----3-3--6-8-----6-6----------3--------------------------------------------|
B|--3----------6-6-----6--4--4h6---h6--4--3-----------------3----------------|
G|-3-------------------------------------------------------------------------|
D|---------------------------------------------------------------------------|
A|---------------------------------------------------------------------------|
E|---------------------------------------------------------------------------|


http://www.big-science.com/mainFrame.php
Tap to rate this tab
# A B C D E F G H I J K L M N O P Q R S T U V W X Y Z