Song name
# A B C D E F G H I J K L M N O P Q R S T U V W X Y Z

Big Simon Band - Y Seras Cancion tab

Cualquier duda: gamalink-23@hotmail.com
Esta cancion la saque para los amantes del buen rock, disfrutenla, ke me costo un buen ;)

              -Y Seras Cancion-

v = Pre Bend
~ = Vibrato
^ = Bend
A.H. = Armonico Artificial
P.M. = Palm Muting
t = Tapping
p = Pull Off
h = Hammer On
/ = Slide
(10-10)^ = Tocar las notas con bend

 e-v12-14-15-17-15-14-12-14-15-17-19~------------------------|
 B-----------------------------------------------------------|
 G-----------------------------------------------------------|
 D-----------------------------------------------------------|
 A-----------------------------------------------------------|
 E-----------------------------------------------------------|

 e------------------12-11-9--9-------------------------------|
 B-15-14-12-13-12-9--------12-12-11-9------------------------|
 G------------------------------------12-v1212^-11-9~--------|
 D-----------------------------------------------------------|
 A-----------------------------------------------------------|
 E-----------------------------------------------------------|
                                        A.H.
 e-----12-11-9---9--9----------------------------------------|
 B-10----------12-12-12-11-9--9----------7-------------------|
 G-12^----------------------12-12-11-------------------------|
 D-----------------------------------------------------------|
 A-----------------------------------------------------------|
 E-----------------------------------------------------------|

 e-----------------------------------------------------------|
 B-t12p6/8-t12p8/10-t1410/12-t12/10-t10/12-t12/16-t16/18~----|
 G-----------------------------------------------------------|
 D-----------------------------------------------------------|
 A-----------------------------------------------------------|
 E-----------------------------------------------------------|

 e-16^(16-16)^-----------------------------------------------|
 B-------------14^-12h15h16p15-----7h9h10^10(10-10-10)^v-----|
 G-----------------------------16~---------------------------|
 D-----------------------------------------------------------|
 A-----------------------------------------------------------|
 E-----------------------------------------------------------|

 e-----------------------------------------------------------|
 B-10-9-7----------------------------------------------------|
 G--------10-9-7---------------------------------------------|
 D---------------10-9-7-9-10-12-10-9-7-6-5~------------------|
 A-----------------------------------------------------------|
 E-----------------------------------------------------------|

   P.M....................
 e-----------------------------------------------------------|
 B-------------------------5^~---12^-12-11-9-11-11^----------|
 G-------------------3-4-5-----------------------------------|
 D-------------3-4-5-----------------------------------------|
 A-------3-4-5-----------------------------------------------|
 E-3-4-5-----------------------------------------------------|

 e-12-11-9----------------------------------------------------|
 B---------12-11-9-12-9-12-9-11-12-9-12-1414141414-1616161616-|
 G------------------------------------------------------------|
 D------------------------------------------------------------|
 A------------------------------------------------------------|
 E------------------------------------------------------------|

 e-1313131313-1515151515-17171717-21^------------------------|
 B-----------------------------------------------------------|
 G-----------------------------------------------------------|
 D-----------------------------------------------------------|
 A-----------------------------------------------------------|
 E-----------------------------------------------------------|
Tap to rate this tab
# A B C D E F G H I J K L M N O P Q R S T U V W X Y Z