Song name
# A B C D E F G H I J K L M N O P Q R S T U V W X Y Z

Big Star - Stroke It Noel tab

Help us improve GuitareTab! Take a short survey!
Highlighted       Show chord diagrams
frm Cormac Gartland at macbethyname@yahoo.com

Stroke it Noel - Big Star
Standard
Chords:
D7*   X97778
G     320003
C     X32010
D7/F# 200212

Intro (G-B-E Shown)
|--3--5--7--8--|
|--------------|
|--4--5--7--9--|
D7*                          G
Child will will you come on down
                    C
And come on in with me
D7/F#                G
Morning says to idle on
                    C   
Stay clear of the street, oh
G
On the wing
    D7/F#
And on the land
G 
Can't you sing
     D7/F#
With anything?

"Do you wanna dance" String Thing (chorus)
|----------7-7-5-5-3-3-2-2--0----3-3-2-2-0-0------|
|--0--0-0--0-0-0-0-0-0-0-0--1----1-1-1-1-1-1-3-3--|
|--0--0-0--0-0-0-0-0-0-0-0--0----0-0-0-0-0-0-0-0--|
|--0--0-0--0-0-0-0-0-0-0-0--2----X-X-X-X-X-X-X-X--|
|--X--X-X-------------------3----3-3-3-3-3-3-3-3--|
|--3--3-3-----------------------------------------|

         D7/F#           G
And they say we're lazy men
                    C
Drinkin' our white wine
D7/F#                 G
You could go right insane
                     C
Cos we can buy the time
G
Keepin' an eye
D7/F#
On the sky
G
Will they come
D7/F#
Oh, the bombs

Chorus
Related for Stroke It Noel tab