Guitaretab - guitar tabs
Song name
# A B C D E F G H I J K L M N O P Q R S T U V W X Y Z

Big Star - Back Of A Car tab

Band: Big Star
Song: Back of a Car
Album: Radio City
Year: 1974

Verse
e||-----2-0---------1-0---------------------------|
B||--3------3-----3-----3---------------3---------|
G||*-2--------2---1-------1---2---------0-------0-|
D||*-0----------0-0---------0-2-4-2-4-2---0-2---|
A||---------------------------0-0-0-0-3---------|
E||-----------------------------------------------|

e|---------------------------------------|
B|-----3-------1------1------1------3-3--|
G|---2---2-------0------0-----0-----2-2--|
D|-0--------------------------------0-0--|
A|----------3------0---------------------|
E|------------------------3------2-2-2--|
[ Tab from: http://www.guitaretab.com/b/big-star/116707.html ]
e|-----------------||
B|-----------------||
G|-4---5---7-7---*||
D|-0---0---0-0---*||
A|-----------------||
E|-3---3--3-3----||

Chorus
e||--3-3-3---3-3-3---2-2-3-3---||
B||--3-3-3---3-3-3---3-3-3-3---||
G||*-0-0-0---0-0-0---2-2-2-0--*||
D||*-2-2-2---0-0-0---0-0-0-0--*||
A||--3-3-3---2-2-2----------2---||
E||-----------3-3-3----------3---||

e|-3---3---2-------3---3---2------|
B|-3---3---3-------3---3---3------|
G|-0---0---2-------0---0---2------|
D|-2---0---0-------2---0---0------|
A|-3---2-----------3---2----------|
E|-----3---------------3----------|

Bridge
e||-------------------------------||
B||--5-5-3-2---3---------------||
G||*-2-2-2-2---2--------2-4-2-*||
D||*-2-2-2-2---0-2-2-4-------*||
A||--0-0-0-0-------------------||
E||-------------------------------||
Related for Back Of A Car tab