Song name
# A B C D E F G H I J K L M N O P Q R S T U V W X Y Z

Big Star - In The Street tab

Artist-Big Star
Song-In the Street
Album-#1 Record
Writer-Bell/Chilton
Tabbed by S. McNally


Capo 5, Chords relative to capo


Intro
----------------------2--3--2------------------2--3--2--------------|
-(5h7)----------------3--3--3------------------3--3--3--------------|
----------------------2--0--2------------------2--0--2--------------|
-------------------0--0--0--0---------------0--0--0--0--------------|
-------------0-1-2-------2------------0-1-2-------2-----------0-1-2-|
-------0-1-2-------------3------0-1-2-------------3-----0-1-2-------|

Verse
----2------3--2------------------2-----3--2---------------|
----3------3--3------------------3-----3--3---------------|
----2------0--2------------------2-----0--2---------------|
-0--0------0--0---------------0--0-----0--0---------------|
-----------2-----------0-1-2-----------2------------0-1-2-|
-----------3-----0-1-2-----------------3------0-1-2-------|
Hanging out,                  down the street

----2-------------3--2------------------2-----3--2-------------------|
----3-------------3--3------------------3-----3--3-------------------|
----2-------------0--2------------------2-----0--2-------------------|
-0--0-------------0--0---------------0--0-----0--0-----------------0-|
------------------2-----------0-1-2-----------2------------0-1-2-----|
------------------3-----0-1-2-----------------3------0-1-2-----------|
the Same old thing                 we did last week            Not a

Refrain
 G       Dadd4   Em7              G      Dadd4    Em7       A7sus4
------------------------------------------------------------------|
-----3-------3-------3-------3--------3-------3-------3-------3---|
-------0-------0-------0-------0--------0-------0-------0-------2-|
---0-------0-------0-------0--------0-------0-------0-------2-----|
----------------------------------------------------------0-------|
-3-------2-------0-------0--------3-------2-------0---------------|
Thing    to      do         but   talk    to      you


----2------3--2------------------2-----3--2---------------|
----3------3--3------------------3-----3--3---------------|
----2------0--2------------------2-----0--2---------------|
-0--0------0--0---------------0--0-----0--0---------------|
-----------2-----------0-1-2-----------2------------0-1-2-|
-----------3-----0-1-2-----------------3------0-1-2-------|

Verse
----2---------3--2------------------2-------3--2---------------|
----3---------3--3------------------3-------3--3---------------|
----2---------0--2------------------2-------0--2---------------|
-0--0---------0--0---------------0--0-------0--0---------------|
--------------2-----------0-1-2-------------2------------0-1-2-|
--------------3-----0-1-2-------------------3------0-1-2-------|
Steal your car,             and bring it down

----2------3--2-----------------------2-----3--2---------------|
----3------3--3-----------------------3-----3--3---------------|
----2------0--2------------------2----------0--2---------------|
-0--0------0--0---------------0--0----------0--0---------------|
-----------2-----------0-1-2----------------2------------0-1-2-|
-----------3-----0-1-2----------------------3------0-1-2-------|
Pick me up,               we'll drive around

Refrain
 G       Dadd4   Em7              G      Dadd4    Em7       A7sus4
------------------------------------------------------------------|
-----3-------3-------3-------3--------3-------3-------3-------3---|
-------0-------0-------0-------0--------0-------0-------0-------2-|
---0-------0-------0-------0--------0-------0-------0-------2-----|
----------------------------------------------------------0-------|
-3-------2-------0-------0--------3-------2-------0---------------|
Wish     we      had          a   joint   so      bad

Instrumental break
-----3p2-------3p2-------3p2----------|
---3-----3---3-----3---3-----3--------|
-----------2---------2---------2-(2)--|
-0------------------------------------|
--------------------------------------|
--------------------------------------|

-------0---0--------0---0--------0---0--------0---0--------|
-------3/5----------3/5----------3/5----------3/5----------|
-2p1----------2p1----------2p1----------2p1----------2p1---|
-----2------------2------------2------------2------------2-|
-----------------------------------------------------------|
-----------------------------------------------------------|

Refrain
-------------------------------------------------------------------|
-------------------------------------------------------------------|
-----4--------4-------4-------4-------4--------4-------4-------4---|
---4---4----4---4---4---4---4---4---4---4----4---4---4---4---4---4-|
-2--------0-----------------------2--------0-----------------------|
------------------4-------2------------------------4-------2-------|
Pass      the    street light     out      past    mid     night

 F#       G# A
-----------------|
-----------------|
-3--3-3---5--2---|
-4--4-4---6--2---|
-4--4-4---6--0---|
-2--2-2---4------|

Solo (over verse chords)
---------0-1-2--3-2-3-2--------------------------------|
-------3----------------3-3-----3----------------------|
-2-3-4----------------------2h4---4p2p0---------0-(0)--|
----------------------------------------4-0-2h4-5-(5)--|
-------------------------------------------------------|
-------------------------------------------------------|

--------------------------------|
-3-5-3-5/7-7b8-7-5--7b8-7-5-----|
--------------------------------|
--------------------------------|
--------------------------------|
--------------------------------|

Instrumental
-----3p2-------3p2-------3p2----------|
---3-----3---3-----3---3-----3--------|
-----------2---------2---------2-(2)--|
-0------------------------------------|
--------------------------------------|
--------------------------------------|

-------0---0--------0---0--------0---0--------0---0--------|
-------3/5----------3/5----------3/5----------3/5----------|
-2p1----------2p1----------2p1----------2p1----------2p1---|
-----2------------2------------2------------2------------2-|
-----------------------------------------------------------|
-----------------------------------------------------------|

 B        B/A     B/G#    B/F#    B        B/A    B/G#     B/F#
-------------------------------------------------------------------|
-------------------------------------------------------------------|
-----4--------4-------4-------4-------4--------4-------4-------4---|
---4---4----4---4---4---4---4---4---4---4----4---4---4---4---4---4-|
-2--------0-----------------------2--------0-----------------------|
------------------4-------2------------------------4-------2-------|
Ahh....

 F#       G# A
---------------------------------|
---------------------------------|
-3--3-3---5--2-------------------|
-4--4-4---6--2-------------------|
-4--4-4---6--0-------------0-1-2-|
-2--2-2---4----------0-1-2-------|


Verse
----2------3--2------------------2-----3--2---------------|
----3------3--3------------------3-----3--3---------------|
----2------0--2------------------2-----0--2---------------|
-0--0------0--0---------------0--0-----0--0---------------|
-----------2-----------0-1-2-----------2------------0-1-2-|
-----------3-----0-1-2-----------------3------0-1-2-------|
Hanging out,                  down the street

----2-------------3--2------------------2-----3--2-------------------|
----3-------------3--3------------------3-----3--3-------------------|
----2-------------0--2------------------2-----0--2-------------------|
-0--0-------------0--0---------------0--0-----0--0-----------------0-|
------------------2-----------0-1-2-----------2------------0-1-2-----|
------------------3-----0-1-2-----------------3------0-1-2-----------|
the Same old thing                 we did last week            Not a

Refrain
 G       Dadd4   Em7              G      Dadd4    Em7       A7sus4
------------------------------------------------------------------|
-----3-------3-------3-------3--------3-------3-------3-------3---|
-------0-------0-------0-------0--------0-------0-------0-------2-|
---0-------0-------0-------0--------0-------0-------0-------2-----|
----------------------------------------------------------0-------|
-3-------2-------0-------0--------3-------2-------0---------------|
Thing    to      do         but   talk    to      you

Ending
----2------3--2------------------2-----3--2--|
----3------3--3------------------3-----3--3--|
----2------0--2------------------2-----0--2--|
-0--0------0--0---------------0--0-----0--0--|
-----------2-----------0-1-2-----------2-----|
-----------3-----0-1-2-----------------3-----|
Tap to rate this tab
# A B C D E F G H I J K L M N O P Q R S T U V W X Y Z