Song name
# A B C D E F G H I J K L M N O P Q R S T U V W X Y Z

Big Star - Watch The Sunrise tab

Artist-Big Star
Song-Watch The Sunrise
Album-#1 Record
Writer-Alex Chilton
Tabbed by S. McNally

Tune guitar to open G (D G D G B D)

Chords used

G  - x 0 0 0 0 0
Am - x 0 2 0 1 0
Bm - x 0 4 0 3 0
C  - x 0 5 0 5 0
D  - x 0 7 0 7 0


Listen to the song for strumming pattern.


Intro
--0----0--0--0--|
-10/12-12-10-8--|
--0----0--0--0--|  2x
-10/12-12-10-9--|
--0----0--0--0--|
----------------|

--0----0--0--0-x-0-0-0-0-|
-10/12-12-10-8-x-7-7-7-8-|
--0----0--0--0-x-0-0-0-0-|
-10/12-12-10-9-x-7-7-7-9-|
--0----0--0--0-x-0-0-0-0-|
-------------------------|

--0----0--0--0--|
-10/12-12-10-8--|
--0----0--0--0--|  2x
-10/12-12-10-9--|
--0----0--0--0--|
----------------|

--0----0--0--0-x-0-0-0-0-|
-10/12-12-10-8-x-7-7-7-8-|
--0----0--0--0-x-0-0-0-0-|
-10/12-12-10-9-x-7-7-7-9-|
--0----0--0--0-x-0-0-0-0-|
-------------------------|

Strum this from 0:10-0:16
-0------------------------|
-7------------------------|
-0------------------------|
-7------------------------|
-0------------------------|
--------------------------|

0:17-0:21
--0----0--0--0---0--0--0--0--0--0--0---|
-10/12-12-10-8--12-12-12-10-10-10-10---|
--0----0--0--0---0--0--0--0--0--0--0---|
-10/12-12-10-9--12-12-12-10-10-10-10---|
--0----0--0--0---0--0--0--0--0--0--0---|
---------------------------------------|

0:22-0:26
--0--0--0--0--0--0--0--0---0-0-0-0-0-0---|
-12-12-12-12-12-12-12-12--10-8-7-7-7-8---|
--0--0--0--0--0--0--0--0---0-0-0-0-0-0---|
-12-12-12-12-12-12-12-12--10-9-7-7-7-9---|
--0--0--0--0--0--0--0--0---0-0-0-0-0-0---|
-----------------------------------------|

0:27-0:32
-0-0--0-0--0-0-0-0---0--0-0-0---0--0---------|
-7-7--5-3--1-1-1-1/3-1--0-0-1-1-1--0---------|
-0-0--0-0--0-0-0-0---0--0-0-0-0-0--0---------|
-7-7--5-4--2-2-2-2/4-2--0-0-2-2-2--0---------|
-0-0--0-0--0-0-0-0---0--0-0-0---0--0---------|
---------------------------------------------|


MAIN RIFF
----------------5-5-(5)--|
-------5p3---3--5-5-(5)--|
-----------4----5-5-(5)--|  4x
----------------5-5-(5)--|
----0--------------------|
--0----------------------|


Verse 1
G     Am       Bm      Am
I can feel it, now it's time
G    Am   Bm   Am
Open your eyes
G        Am       Bm       Am
Fears be gone, it won't be long
G          Am     Bm    Am
There's a light in the sky
     C            Bm
It's okay to look outside
    C            D   (Main Riff 4x)
The day it will abide         and watch the sunrise


Verse 2
Sun, it shines on all of us
We are one in it's hand
Come inside and light my room
like the heart of every man
It's okay to look outside
The day it will abide  and watch the sunrise


Instrumental

---0--0--0--0--0--0--0--0---0--0--0--0--0--0--0--0--0--|
--12-12-12-12-13-12-10-12--13-13-13-13-15-13-13-15-13--|
---0--0--0--0--0--0--0--0---0--0--0--0--0--0--0--0--0--| 2x
--12-12-12-12-14-12-10-12--14-14-14-14-16-14-14-16-14--|
-0-0--0--0--0--0--0--0--0---0--0--0--0--0--0--0--0--0--|
-------------------------------------------------------|

--0--0--0--0--0--0--0--0--0-0-0-0--0-0-0-0--0-0-0-0--0-0-0-0-|
-12-12-12-12-10-10-10-10--8-8-8-8--7-7-7-7--5-5-5-5--3-3-0-0-|
--0--0--0--0--0--0--0--0--0-0-0-0--0-0-0-0--0-0-0-0--0-0-0-0-|
-12-12-12-12-10-10-10-10--9-9-9-9--7-7-7-7--5-5-5-5--4-4-0-0-|
--0--0--0--0--0--0--0--0--0-0-0-0--0-0-0-0--0-0-0-0--0-0-0-0-|
-------------------------------------------------------------|

-0-0-0-0-0--0---------------|
-0-0-1-0-1--0---------------|
-0-0-0-0-0--0---------------|  then main riff 4x
-0-0-2-0-2--0---------------|
-0-0-0-0-0--0---------------|
----------------------------|

Verse 3
I can feel it, now it's time
Open your eyes
Fears be gone, it won't be long
There's a light in the sky
It's okay to look outside
Your love it will abide  and watch the sunrise

Outro
G-Am-Bm-Am-G
Tap to rate this tab
 
# A B C D E F G H I J K L M N O P Q R S T U V W X Y Z