Song name
# A B C D E F G H I J K L M N O P Q R S T U V W X Y Z

Big Star - Thirteen tab

Thirteen (1972)
By Big Starr
Rip Alex Chilton

only one guitar 
Capo 6 

E-----3---------------|-----3---------------|
B-----3-----3---------|-----3-----3---------|
G-------------------0-|-------------------0-|
D---0---0-----0h2p0---|---0---0-----0h2p0---|
A---------3-----------|---------3-----------|
E-3-------------------|-3-------------------|
  


E-----3---------------|-----3---------------|
B-----3-----3---------|-----3-----3---------|
G-------------------0-|-------------------0-|
D---0---0-----0h2p0---|---0---0-----0h2p0---|
A---------3-----------|---------3-----------|
E-3-------------------|-3-------------------|
       Won't you let me  walk you home from

 
E-----3---------------|-----3---------------|
B-----3-----3---------|-----3-----3---------|
G-------------------0-|-------------------0-|
D---0---0-----0h2p0---|---0---0-----0h2p0---|
A---------3-----------|---------3-----------|
E-3-------------------|-3-------------------|
    school?

 
E-----3---------------|-----3---------------|
B-----3-----3---------|-----3-----3---------|
G-------------------0-|-------------------0-|
D---0---0-----0h2p0---|---0---0-----0h2p0---|
A---------3-----------|---------3-----------|
E-3-------------------|-3-------------------|
      Won't you let me  meet you at the

  
E-----------------|---------------3-|-------3---------|
B-----3-------3---|-----1---0-1---1-|---1---1---1-----|
G-----0-0-----0-0-|-----2---2-2-----|---2-------2---2-|
D---2-------0-----|---2-------------|---------------2-|
A-3-------2-------|-0-----0-----0---|-0---0---0---0---|
E-----------------|-----------------|-----------------|
  pool?                                       Maybe

 
E-------0---------|-----------3-----|
B-------0---------|-----1-0---0---0-|
G-----0-----0-----|-----2-2-------2-|
D-------------2---|---2-------------|
A---2-----------2-|-0-------0---0---|
E-0-------0-------|-----------------|
  Friday    I       can         Get

E-------0---------|---------------3-|-------3---------|
B-------0---------|-----1---0-1---1-|---1---1---1-----|
G-----0-----0-----|-----2---2-2-----|---2-------2---2-|
D-------------2---|---2-------------|---------------2-|
A---2-----------2-|-0-----0-----0---|-0---0---0---0---|
E-0-------0-------|-----------------|-----------------|             
tickets   for the dance                       And I'll

               
E-----------------|---------|---------------3-|-------3---------|
B-----3-------3---|-----3---|-----1---0-1---1-|---1---1---1-----|
G---2---2-----0---|-----0---|-----2---2-2-----|---2-------2---2-|
D-0---------2---2-|---0---0-|---2-------------|---------------2-|
A---------3-------|-2-------|-0-----0-----0---|-0---0---0---0---|
E-----------------|---------|-----------------|-----------------|           
take                        you                       Oooh


E-----3---------------|-----3---------------|
B-----3-----3---------|-----3-----3---------|
G-------------------0-|-------------------0-|
D---0---0-----0h2p0---|---0---0-----0h2p0---|
A---------3-----------|---------3-----------|
E-3-------------------|-3-------------------|
    hoo

E-----3---------------|-----3---------------|
B-----3-----3---------|-----3-----3---------|
G-------------------0-|-------------------0-|
D---0---0-----0h2p0---|---0---0-----0h2p0---|
A---------3-----------|---------3-----------|
E-3-------------------|-3-------------------|
 
      Won't you tell your dad, "get off my

E-----3---------------|-----3---------------|
B-----3-----3---------|-----3-----3---------|
G-------------------0-|-------------------0-|
D---0---0-----0h2p0---|---0---0-----0h2p0---|
A---------3-----------|---------3-----------|
E-3-------------------|-3-------------------|
    back?"


E-----3---------------|-----3---------------|
B-----3-----3---------|-----3-----3---------|
G-------------------0-|-------------------0-|
D---0---0-----0h2p0---|---0---0-----0h2p0---|
A---------3-----------|---------3-----------|
E-3-------------------|-3-------------------|
Tell him what we  said 'bout "Paint It

  
E-----------------|---------------3-|-------3---------|
B-----3-------3---|-----1---0-1---1-|---1---1---1-----|
G-----0-0-----0-0-|-----2---2-2-----|---2-------2---2-|
D---2-------0-----|---2-------------|---------------2-|
A-3-------2-------|-0-----0-----0---|-0---0---0---0---|
E-----------------|-----------------|-----------------|
  Black"                                      Rock and


E-------0---------|-----------3-----|
B-------0---------|-----1-0---0---0-|
G-----0-----0-----|-----2-2-------2-|
D-------------2---|---2-------------|
A---2-----------2-|-0-------0---0---|
E-0-------0-------|-----------------|
  roll is here to   stay    Come in-

  
E-------0---------|---------------3-|-------3---------|
B-------0---------|-----1---0-1---1-|---1---1---1-----|
G-----0-----0-----|-----2---2-2-----|---2-------2---2-|
D-------------2---|---2-------------|---------------2-|
A---2-----------2-|-0-----0-----0---|-0---0---0---0---|
E-0-------0-------|-----------------|-----------------|
  side, girl, it's okay                         And I'll

              
E-----------------|---------|---------------3-|-------3---------|
B-----3-------3---|-----3---|-----1---0-1---1-|---1---1---1-----|
G---2---2-----0---|-----0---|-----2---2-2-----|---2-------2---2-|
D-0---------2---2-|---0---0-|---2-------------|---------------2-|
A---------3-------|-2-------|-0-----0-----0---|-0---0---0---0---|
E-----------------|---------|-----------------|-----------------|
  shake                       you                       Oooh

E-----3---------------|-----3---------------|
B-----3-----3---------|-----3-----3---------|
G-------------------0-|-------------------0-|
D---0---0-----0h2p0---|---0---0-----0h2p0---|
A---------3-----------|---------3-----------|
E-3-------------------|-3-------------------|
   hoo

  A                                   Cadd9
E-----------0-----|-----------0-----|-------0---------|-------0---------|
B---2---0---0---0-|---2---0---0---0-|-------3---3-----|-------3---3-----|
G---2---2-------2-|---2---2-------2-|-----0-------0---|-----0-------0---|
D-----------------|-----------------|---2-----------2-|---2-----------2-|
A-0---0---0---0---|-0---0---0---0---|-3-------3-------|-3-------3-------|
E-----------------|-----------------|-----------------|-----------------|
  
  
E-5-5---2---0-----|-5-5---2---0-----|-----------------|-----------------|
B-2-2---2---2---2-|-2-2---2---2---2-|-----3-------3---|-----3-------3---|
G-2-2---2---2---2-|-2-2---2---2---2-|---2---2-----0---|-----0-------0---|
D-2-2---2---------|-2-2---2---------|-0---------2---2-|---0---0---2---2-|
A-0-0-0-0-0---0---|-0-0-0-0-0---0---|---------3-------|-2-------0-------|
E-----------------|-----------------|-----------------|-----------------|
  
 
E-----3---------------|-----3---------------|
B-----3-----3---------|-----3-----3---------|
G-------------------0-|-------------------0-|
D---0---0-----0h2p0---|---0---0-----0h2p0---|
A---------3-----------|---------3-----------|
E-3-------------------|-3-------------------|                           
Won't you tell me what you're thinking


E-----3---------------|-----3---------------|
B-----3-----3---------|-----3-----3---------|
G-------------------0-|-------------------0-|
D---0---0-----0h2p0---|---0---0-----0h2p0---|
A---------3-----------|---------3-----------|
E-3-------------------|-3-------------------|
    of?


E-----3---------------|-----3---------------|
B-----3-----3---------|-----3-----3---------|
G-------------------0-|-------------------0-|
D---0---0-----0h2p0---|---0---0-----0h2p0---|
A---------3-----------|---------3-----------|
E-3-------------------|-3-------------------|
  
      Would you be an   outlaw for my

  
E-----------------|---------------3-|-------3---------|
B-----3-------3---|-----1---0-1---1-|---1---1---1-----|
G-----0-0-----0-0-|-----2---2-2-----|---2-------2---2-|
D---2-------0-----|---2-------------|---------------2-|
A-3-------2-------|-0-----0-----0---|-0---0---0---0---|
E-----------------|-----------------|-----------------|
   love?                                       If it's

E-------0---------|-----------3-----|
B-------0---------|-----1-0---0---0-|
G-----0-----0-----|-----2-2-------2-|
D-------------2---|---2-------------|
A---2-----------2-|-0-------0---0---|
E-0-------0-------|-----------------|
    over, let me      know,   if it's


E-------0---------|---------------3-|-------3---------|
B-------0---------|-----1---0-1---1-|---1---1---1-----|
G-----0-----0-----|-----2---2-2-----|---2-------2---2-|
D-------------2---|---2-------------|---------------2-|
A---2-----------2-|-0-----0-----0---|-0---0---0---0---|
E-0-------0-------|-----------------|-----------------|
    nowehere, I can   go                          I won't

           
E-----------------|---------|---------------3-|-------3---------|
B-----3-------3---|-----3---|-----1---0-1---1-|---1---1---1-----|
G---2---2-----0---|-----0---|-----2---2-2-----|---2-------2---2-|
D-0---------2---2-|---0---0-|---2-------------|---------------2-|
A---------3-------|-2-------|-0-----0-----0---|-0---0---0---0---|
E-----------------|---------|-----------------|-----------------|
  
  make                        you                       Oooh

E-----3---------------|-----3---------------|
B-----3-----3---------|-----3-----3---------|
G-------------------0-|-------------------0-|
D---0---0-----0h2p0---|---0---0-----0h2p0---|
A---------3-----------|---------3-----------|
E-3-------------------|-3-------------------|
    hoo

  
E-----3---------------|-------3-|
B-----3-----3---------|-------3-|
G-------------------0-|-------0-|
D---0---0-----0h2p0---|-----0-0-|
A---------3-----------|---2---2-|
E-3-------------------|-3-----3-|
  
Tap to rate this tab
# A B C D E F G H I J K L M N O P Q R S T U V W X Y Z