Song name
# A B C D E F G H I J K L M N O P Q R S T U V W X Y Z

Big Sugar - All Hell For A Basement chords

Highlighted       Show chord diagrams
All Hell For a Basement-Big Sugar-Chords By Kenny Perry
Intro/Main riff x 2
e|------------------------------------------------------------------------|
B|------------------------------------------------------------------------|
G|------------------------------------------------------------------------|
D|---------------------3--5--3--------------3--5--3-----------------------|
A|-------------3--5---------------5--3--5--------------5--3--5------------|
E|---3--5--6-------------------------------------------------(6)----------|
(6)= Second time end riff with A# note (E string 6 fret)

Verse 1
 G	      Bb	 D#                 Bb    D#	 Bb
I'm a working man but I ain't worked for a while

 G                Bb           D#            Bb
like some old tin can from the bottom of the pile
         D#            Bb
From the bottom of the pile

Chorus
	D#  Bb F        Bb F     D#
I have lost my way, but I hear a tale

   	Bb     D#   F
about a heaven in Alberta

		 Bb   F   D#           Bb
where they have gone all hell for a basement


Main riff x 1

Verse 2

    G                 Bb          D#                Bb
    D#    Bb
my weapons are like a rope that's wrapped around my throat

  G                Bb       D#             Bb
wash my mouth with soap for words unfit to quote


Chorus

       D#   Bb F       Bb F      D#
I have lost my way, but I hear a tale

        Bb     D#   F
about a heaven in Alberta

                Bb   F   D#           Bb
where they have gone all hell for a basement

       D#   Bb F      Bb F      D#
I have lost my way but I hear a tale

        Bb     D#   F
about a heaven in Alberta

                Bb   F   D#           Bb
where they have gone all hell for a basement






Solo
e----------------------------------------------------------------------------|
B----------------------------------------------------------------------------|
G-----------------------------10--12--10--------------10--12--10-------------|
D---------------------10--12--------------12--10--12--------------12--10--12-|
A-13--12--10--12--13---------------------------------------------------------|
E----------------------------------------------------------------------------|

e---------------------------------------------------------------------------|
B-------------------------------11--------------11--------------------------|
G----------------------------------12--10----------12--10-------------------|
D---------------------10--12--------------12--10----------12--10------------|
A-13--12--10--12--13---------------------------------------------13---------|
E---------------------------------------------------------------------------|



Verse 3

 G              Bb     D#            Bb    
D#    Bb
now I'm free to go but time cannot remove

 G              Bb       D#             Bb
the only life I know now only time will prove

     D#             Bb
yes, only time will prove

Chorus (Acoustic)

       D#   Bb F     Bb    F        D#
I have lost my way   cause I hear a tale

        Bb     D#   F
about a heaven in Alberta

                Bb   F   D#           Bb
where they have gone all hell for a basement


Chorus

       D#   Bb F   Bb  F        D#
I have lost my way but I hear a tale

        Bb     D#   F
about a heaven in Alberta

                Bb   F   D#           Bb
where they have gone all hell for a basement


Ending guitar solo
-------------------------------------------------------------------------------------|
16--15--13---15--13------------13----------------------------------------------------|
---------------------15--12--------15--14-------15--14--12---------------------------|
-------------------------------------------15---------------15--12-------------10-12-|
--------------------------------------------------------------------10--12--13-------|
-------------------------------------------------------------------------------------|
Tap to rate this tab
 
# A B C D E F G H I J K L M N O P Q R S T U V W X Y Z