Song name
# A B C D E F G H I J K L M N O P Q R S T U V W X Y Z

Big Sugar - Heart Refuse To Pound tab

-------------------------------------------------------------------------------
			     Heart Refuse to Pound - Big Sugar
-------------------------------------------------------------------------------
Tabbed by: Muskoka Jen
Email: rambleon666@gmail.com

Tuning: Drop D


Bass/Guitar Line:

e-------------------------------|--------------------------------|
b-------------------------------|--------------------------------|
g-------------------------------|--------------------------------|
d-------------------------------|--------------------------------|
a-------5------0-3-3-0---0-0-5--|------0-5------0-3-3-0---0-0-5--|
d-----0-------------------------|--------------------------------|

e-------------------------------|--------------------------------|
b-------------------------------|--------------------------------|
g-------------------------------|--------------------------------|
d-------------------------------|--------------------------------|
a-------5------0-3-3-0---0-0-5--|--------5------0-3-3-0---0-0-5--|
d-----5-------------------------|------5-------------------------|

                  
As I lay awake I find              
You're resting on my mind
And running through my head
While I'm laying up in my bed
I don't sleep no more
Wonder what I'm living for

D
How long 'till I have
D                     G
How long 'till I have you?

                          D
If I thought you felt the same
                          G
I would walk until I was lame
                     D
Across four thousand miles
                       G
Just to hold you for a while

D
How long 'till I have
D                     G
How long 'till I have you?
D
How long 'till I have
D                     C
How long 'till I have you?


Solo (approximately):

e--------------------------------|--------------------------------|
b--------------------------------|--------------------------------|
g--------------------------------|--------------------------------|
d-----12-15-12-----12------------|---10p9h10p9-7------------------|
a--------------15----------------|--------------------------------|
d--------------------------------|--------------------------------|

e--------------------------------|--------------------------------|
b--------------------------------|--------------------------------|
g--------------------------------|--------------------------------|
d-----9s10-12s10--9s7------------|---5----------------------------|
a--------------------------------|--------------------------------|
d--------------------------------|--------------------------------|

e--------------------------------|--------------------------------|
b--------------------------------|---3----------------------------|
g-11--12p11-12-14-12-11--11s9----|---2----------------------------|
d----------------------------12--|---0----------------------------|
a--------------------------------|---0----------------------------|
d--------------------------------|---0----------------------------|

e--------------------------------|--------------------------------|
b--------------------------------|--------8-----------------------|
g-----9h10-12---10--9------------|--------------------------------|
d--12------------------12--------|---8s5--------------------------|
a--------------------------------|--------------------------------|
d--------------------------------|--------------------------------|

e--------------------------------|--------------------------------|
b--13-12-13-12-13-15--13p12s10---|---3----------------------------|
g--------------------------------|---2----------------------------|
d--------------------------------|---0----------------------------|
a--------------------------------|---0----------------------------|
d--------------------------------|---0----------------------------|

e-----s15--13-12-10--------------|--------------------------------|
b--15----------------------------|--------------------------------|
g--------------------------------|--------------------------------|
d--------------------------------|---0----------------------------|
a--------------------------------|---5----------------------------|
d--------------------------------|---5----------------------------|

e--14-15-14-15-17-15-14----------|--------------------------------|
b--------------------------------|--------------------------------|
g--------------------------------|--------------------------------|
d--------------------------------|---0----------------------------|
a--------------------------------|---0----------------------------|
d--------------------------------|---0----------------------------|

e--b17--14--15-------------------|
b--------------------------------|
g--------------------------------|
d--------------------------------|
a--------------------------------|
d--------------------------------|

(bass line only)

When my heart refuse to pound
And they lay my body down
I'll be lying there alone
And you'll be staring at my stone

                             D
But if you hear me call your name
                          G
I'll be with you just the same

D
How long 'till I have
D                      G
How long 'till I have you?
D 
How long 'till I have
D                     G
How long 'till I have you?

D
How long 'till I have
D                     C
How long 'till I have you?

Outro:

e--------------------------------|
b--------------------------------|
g---------------------------0----|
d-------2h3-----------------2----|
a---3-5-----3-5-------------3----|
d--------------------------------|

Over and over; distortion first, then clean, then distortion

End on:

e--------------------------------|
b--------------------------------|
g--------------------------------|
d-------2h3----------------------|
a---3-5-----3--------------------|
d--------------------------------|
Tap to rate this tab
# A B C D E F G H I J K L M N O P Q R S T U V W X Y Z