Song name
# A B C D E F G H I J K L M N O P Q R S T U V W X Y Z

Big Sugar - All Hell For A Basement tab

All Hell For A Basement - Big Sugar

e-|-----------------------------------------------------------------------------|
B-|-----------------------------------------------------------------------------|
G-|-----------------------------------------------------------------------------|
D-|-----------------------------------------------------------------------------|
A-|-------------------8--10--8-------------8--10--8-----------------------------|
E-|--3--5--6--8--10-------------10--8--10------------8--10--6--------(x2)-------|

    {Guitar Solo}

e-|-----------------------------------------------------------------------------|
B-|-----------------------------------------------------------------------------|
G-|-----------------------------10--12--10--------------10--12--10--------------|
D-|------------------8--10--12--------------12--10--12--------------12--10--12--|
A-|--13--12--10--12-------------------------------------------------------------|
E-|-----------------------------------------------------------------------------|


e-|------------------------------------------------------------------------------|
B-|----------------------------11----------------------11------------------------|
G-|--------------------------------12--10----------------------------------------|
D-|----------------------------------------12--10--12------12--10----------------|
A-|--13--12--10--12--8--10/12--------------------------------------12--10--8-----|
E-|------------------------------------------------------------------------------|

    {End Guitar Solo}
e-|------------------------------------------------------------------------------|
B-|--16-15-13---15-13-11--------13-10------11-10---------------------------------|
G-|------------------------12----------10----------12--10--10/7--------3--5--7---|
D-|--------------------------------------------------------------5--7------------|
A-|------------------------------------------------------------------------------|
E-|------------------------------------------------------------------------------|
Tap to rate this tab
# A B C D E F G H I J K L M N O P Q R S T U V W X Y Z