Song name
# A B C D E F G H I J K L M N O P Q R S T U V W X Y Z

Big Sugar - Im A Ram tab

-------------------------------------------------------------------------------
                             Im a Ram  Big Sugar
-------------------------------------------------------------------------------
Tabbed by: George Juggles
E-mail: nwells522@hotmail.com

Tuning: Drop D (DADGBe)

Intro/ main riff

e|---------------------------------------------------------------------------|
B|---------------------------------------------------------------------------|
G|---------------------------------------------------------------------------|
D|---------3-------------------------------3---------------------------------|
A|---3--5--------5--5---7-\-3--0-----3--5--------5--5---7-\-3----------------|
E|---------------5--5---7-\-3--0-----------------5--5---7-\-3----------------|

Verse

e|----------------------------------------2---2---3-3---3--------------------|
B|-------6--5--------3--------------------3---3---3-3---3--------------------|
G|-------5--5--------3h4 Play 6 times ---2---2---4-4---4--- Play 4 times ---|
D|-------4--4----5---5--------------------0---0---5-5---5--------------------|
A|-------5--5----------------------------------------------------------------|
E|---0-----------------------------------------------------------------------|

e|---------------------------------------------------------------------------|
B|---------------------------------------------------------------------------|
G|---------------------------------------------------------------------------|
D|---------------------------------------------------------------------------|
A|---5---5--3--0 Play 4 times ----------------------------------------------|
E|---5---5--3--0-------------------------------------------------------------|

During the solo

e|---2---2---3-3---3---------------------2---2---3-3---3---------------------|
B|---3---3---3-3---3--- Play 8 times ----3---3---3-3---3--- Play 4 times ----|
G|---2---2---4-4---4---------------------2---2---4-4---4---------------------|
D|---0---0---5-5---5---------------------0---0---5-5---5---------------------|
A|---------------------------------------------------------------------------|
E|---------------------------------------------------------------------------|

Hope you like it. Please leave a comment.


************************************

| /   slide up
| \   slide down
| h   hammer-on
| p   pull-off
| ~   vibrato
| +   harmonic
| x   Mute note
| b   Bend
| pb  Pre-bend
| br  Bend release
| pbr Pre-bend release
| brb Bend release bend

************************************
Tap to rate this tab
# A B C D E F G H I J K L M N O P Q R S T U V W X Y Z