Song name
# A B C D E F G H I J K L M N O P Q R S T U V W X Y Z

Big Sugar - Butterball tab

Help us improve GuitareTab! Take a short survey!
Artist: Big Sugar
Song: Butterball
Tabber: Samuel Scheideman
Comments: 
Tuning: Drop C (Down one whole step in drop D tuning)
E-mail addy: klayfeather@hotmail.com

Intro:
D|-----------------------|
A|-----------------------|
F|-----------------------|
C|-----------------------|
G|--4-5-6--4-5-6--4-5-6--|
C|-----------------------|

Main rhythm:
D|-------------------------------------|
A|-------------------------------------|
F|-------------------------------------|
C|-----------------------4-------------|
G|--4-5-6--4h5h6--4h5h6----------------|
C|--------------------------6-6-6-5-4--|
Related for Butterball tab