Song name
# A B C D E F G H I J K L M N O P Q R S T U V W X Y Z

Big Sugar - Diggin A Hole In My Heart tab

-------------------------------------------------------------------------------
			     Diggin' a Hole - Big Sugar
-------------------------------------------------------------------------------
Tabbed by:joseph rowling	
Email:joerowling@hotmail.com

Tuning:standard

Verse
Can't read the lines on the page...	        I'm feeling twice my age...
			  D	  A			          D 	  A
e|--------------------2-2---2-2---0~--------------------------2-2---2-2---0~-|
B|--------------------3-3---3-3---2~--------------------------3-3---3-3---2~-|
G|--------------------2-2---2-2---2~--------------------------2-2---2-2---2~-|
D|--------------------0-0---0-0---2~--------------------------0-0---0-0---2~-|
A|--------------------------------0~--------------------------------------0~-|
E|---------------------------------------------------------------------------|

I've been crying for days and I'm falling apart...   digging a hole in my heart...
e|---------------------------------------------------------------------------|
B|---------------------------------------------------------------------------|
G|---------------------------------------------------------------------------|
D|-------------14-14-12-10--10-12-10/7~--------------14-14-12-10--10-12-10/7~|
A|-------------14-14-12-10--10-12-10/7~--------------14-14-12-10--10-12-10/7~|
E|---------------------------------------------------------------------------|

e|---------------------------------------------------------------------------|
B|---------------------------------------------------------------------------|
G|------------10/12-12-12-12-12-12-12-12-------------------------------------|
D|------------12/14-14-14-14-14-14-14-14-------------------------------------|
A|---------------------------------------------------------------------------|
E|---------------------------------------------------------------------------|

Chorus
Diggin a hole least that's the way you treat me Diggin a hole just tie me up and beat me
		D
e|------2-2-2-2-2-2-2-2-2-2-2-2-2-2-2-2-2-2-2-2-2-2-2-2----------------------|
B|------3-3-3-3-3-3-3-3-3-3-3-3-3-3-3-3-3-3-3-3-3-3-3-3----------------------|
G|------2-2-2-2-2-2-2-2-2-2-2-2-2-2-2-2-2-2-2-2-2-2-2-2----------------------|
D|--------------------------------------------------------14-14-12-10-12-10-7|
A|--------------------------------------------------------14-14-12-10-12-10-7|
E|---------------------------------------------------------------------------|

e|---------------------------------------------------------------------------|
B|---------------------------------------------------------------------------|
G|-----------------12----------------------------------12--------------------|
D|------7-10-12-14-12-14-12-10---7-7~-------7-10-12-14-12-14-12-10---7-7~----|
A|------7-10-12-14----14-12-10---7-7~-------7-10-12-14----14-12-10---7-7~----|
E|---------------------------------------------------------------------------|

e|---------------------------------------------------------------------------|
B|---------------------------------------------------------------------------|
G|-----------------12----------------------------------12--------------------|
D|------7-10-12-14-12-14-12-10---7-7~-------7-10-12-14-12-14-12-10---7-7~----|
A|------7-10-12-14----14-12-10---7-7~-------7-10-12-14----14-12-10---7-7~----|
E|---------------------------------------------------------------------------|


| /  slide up
| \  slide down
| h  hammer-on
| p  pull-off
| ~  vibrato
| +  harmonic
| x  Mute note
===============================================================================
Tap to rate this tab
# A B C D E F G H I J K L M N O P Q R S T U V W X Y Z