Song name
# A B C D E F G H I J K L M N O P Q R S T U V W X Y Z

Big Talk - Big Eye tab


e|-------------------------------------------------------------------|
B|--11---------------------------11----------------------------------|
G|--10----7----10-----12----7----10----5----7----10-----12----7------|
D|--8-----5-----8-----10----5----8-----3----5----8------10----5------|      
A|--8-----5-----8-----10----5----8-----3----5----8------10----5------|
D|--8-----5-----8-----10----5----8-----3----5----8------10----5------|


e|----------------------------------------|
B|--13------------------------------------|
G|--12-----15-----10-----7------10-----7--|
D|--10-----13-----8------5------8------5--|     
A|--10-----13-----8------5------8------5--|
D|--10-----13-----8------5------8------5--|


e|-------------------------------------|
B|--13------------8-----6--------------|
G|--12-----15-----7-----5----3----12---|
D|--10-----13-----5-----3----1----10---|  
A|--10-----13-----5-----3----1----10---|
D|--10-----13-----5-----3----1----10---|


e|--------------------------------------------------------------------|
B|--------------------------------------------------------------------|
G|--7------10-----7-------10-----15-------10-----7-------10----5------|
D|--5--x8--8--x8--5--x8---8--x8--13--x8---8--x8--5--x8---8--x4-3--x4--|  
A|--5------8------5-------8------13-------8------5-------8-----3------|
D|--5------8------5-------8------13-------8------5-------8-----3------|
Tap to rate this tab
 
# A B C D E F G H I J K L M N O P Q R S T U V W X Y Z