Song name
# A B C D E F G H I J K L M N O P Q R S T U V W X Y Z

Big Time Rush - Boyfriend tab

This is Bill Casey's rock remix version for Big Time Rush's song "Boyfriend". The video 
can be seen here: http://www.youtube.com/watch?v=ZgWOBtoNzj8

BOYFRIEND - BIG TIME RUSH

GUITAR 1 - LEAD

INTRO:

G1
E------------------------------------|
B----------777-999----------777-999--|
G--9-9-9-9----------9-9-9-9----------|
D------------------------------------|
A------------------------------------|
D------------------------------------|
(cont.)
E------------------------------------|
B----------777--------------77--77---|
G--9-9-9-9-----888--9-9-9-9---9---9--|
D------------------------------------|
A------------------------------------|
D------------------------------------|

VERSE 1:

G1
“Have you ever had the feeling...”
E---------------------------------|
B---------------------------------|
G--9-9-9-9-9-9-8-8----------------|
D------------------9-11----9-9~~--|
A-----------------------11--------|
D---------------------------------|
(cont.)
“And there isn’t anything they...”
E-----------------------------------|
B-----------------------------------|
G--9-9-9-9-9-9-8-8------------------|
D------------------9-11----11-11~~--|
A-----------------------11----------|
D-----------------------------------|
(cont.)
“Everyday I see you on your own...”
E------------------------------|
B------------------------------|
G------------------------------|
D--11-11-11-11-11-11-9-11------|
A-------------------------11~--|
D------------------------------|
(cont.)
“And I can’t believe that you’re alone...”
E----------------------------|
B----------------------------|
G--------------------8-------|
D--11-11-11-11-11-11---9-7~--|
A----------------------------|
D----------------------------|
(cont.)
“But I overheard your girls...”
E--------------------------------|
B--------------------------------|
G--9-9-9-9-9-9-8-8---------------|
D------------------9-11----9-11--|
A-----------------------11-------|
D--------------------------------|

CHORUS:

G1
“Looking for a boyfriend...”
E----------------------------|
B--o-------------------------|
G----9-9-9-9--------9-11-9~--|
D--o---------11-9~-----------|
A----------------------------|
D----------------------------|
(cont.)
“Knock me down, you know...”
E-----------------------------|
B-------------------------9~--|
G--9-9--------9--9-9-9-11-----|
D------11--11-----------------|
A-----------------------------|
D-----------------------------|
(cont.)
“I don’t care at all...”
E-------------------------------|
B--9-9-9-9-10-12~-10-9----------|
G----------------------11-9-9~--|
D-------------------------------|
A-------------------------------|
D-------------------------------|
(cont.)
“All I really want is...”
E---------------------------------|
B--9-9-9-9-10-12~-10-9---------o--|
G----------------------11-9-9~----| 2x
D------------------------------o--|
A---------------------------------|
D---------------------------------|
(cont.)
“Your boy-boy...”
E------------------------------------|
B----------777-999----------777-999--|
G--9-9-9-9----------9-9-9-9----------|
D------------------------------------|
A------------------------------------|
D------------------------------------|
(cont.)
E----------------------------------------|
B----------777--------------777----------|
G--9-9-9-9-----888--9-9-9-9-----888-9~~--|
D----------------------------------------|
A----------------------------------------|
D----------------------------------------|
VERSE 2

G1
“Let me take a little moment...”
E--
B--
G--
D--
A--
D--
(cont.)
“So when I kick...”
E----------------------------------|
B----------------------------------|
G--9-9-9-9-9-9-8-8-----------------|
D------------------9-11----9-11~~--|
A-----------------------11---------|
D----------------------------------|
(cont.)
“I don’t know what kind of...”
E------------------------------|
B------------------------------|
G------------------------------|
D--11-11-11-11-11-11-9-11------|
A-------------------------11~--|
D------------------------------|
(cont.)
“But I know I gotta...”
E----------------------------|
B----------------------------|
G--------------------8-------|
D--11-11-11-11-11-11---9-7~--|
A----------------------------|
D----------------------------|
(cont.)
“See I think you got the kind...”
E--------------------------------------|
B----------------------------------9~--|
G--9-9-9-9-9-9-8-8-9-11-9~--9-9-9~-----|
D--------------------------------------|
A--------------------------------------|
D--------------------------------------|


*THEN CHORUS*


VERSE 3/INTERLUDE

G1
“If you tell me where...”
E-------------------------------------------|
B------9-------------------------9-11-11~~--|
G--9-9---9-11~--11-11-11-9------------------|
D--------------------------11-11------------|
A-------------------------------------------|
D-------------------------------------------|
(cont.)
“Bigger than the Twilight...”
E----------------------------|
B-------------------9--------|
G--11-11-11-9---------9-11~--|
D-------------11-11----------|
A----------------------------|
D----------------------------|
(cont.)
“I’ll be here, girl I swear.”
E----------------------|
B----------------------|
G--11-9---------9-9~~--|
D-------11~--11--------|
A----------------------|
D----------------------|


*THEN CHORUS*


OUTRO
(These are the chords to play, just watch me and you’ll know what to do)

G1
E--------------------------------------------|
B--------------------------------------------|
G--9--11--13--9--11--13--9--11--8--9--11--9--|
D--x---x---x--x---x---x--x---x--x--x---x--x--|
A--7---9--11--7---9--11--7---9--6--7---9--7--|
D--------------------------------------------|
Tap to rate this tab
# A B C D E F G H I J K L M N O P Q R S T U V W X Y Z