Song name
# A B C D E F G H I J K L M N O P Q R S T U V W X Y Z

Big Time Rush - If I Ruled The World tab

-------------------------------------------------------------------------------
			     If I Ruled The World - Big Time Rush
-------------------------------------------------------------------------------
Tabbed by:Alec Hunnicutt
Email:aghunnicutt@yahoo.com

Tuning:EADGBe -  Capo on 3rd

e|--------------------------------------------------------------------------------|
B|---------------1-------------------------------------------1--------------------|
G|---------------0-----------------------0-------------------0--------------------|
D|--------2------------------------------0---------------2------------------------|
A|----0----------------------------------------------3----------------------------|
E|-------------------------------1\3----------------------------------------------|

e|---------3--------------------------------------------------------------------|
B|---------1--------------------------------------------------------------------|
G|------0-----------------------------------------------------------------------|
D|--3---------------------------------------------------------------------------|
A|------------------------------------------------------------------------------|
E|------------------------------------------------------------------------------|


************************************

| /   slide up
| \   slide down
| h   hammer-on
| p   pull-off
| ~   vibrato
| +   harmonic
| x   Mute note
| b   Bend
| pb  Pre-bend
| br  Bend release
| pbr Pre-bend release
| brb Bend release bend

************************************
Tap to rate this tab
# A B C D E F G H I J K L M N O P Q R S T U V W X Y Z