Song name
# A B C D E F G H I J K L M N O P Q R S T U V W X Y Z

Big Time Rush - My Song For You tab

|----------------------------------|----------0---------0----------|
|--------2----------2--------------|-------------------------------|
|-----2---------2----------2-------|-------1--------1----------1---|
|----------------------------------|----2--------2---------2-------|
|---0--------0---------0-----------|-------------------------------|
|----------------------------------|-------------------------------|

|--------0-------0--------|----------------------|
|-------------------------|-------3------2-------|
|-----2-------2-------2---|-----2-----2-------2--|
|--4-------4-------4------|--0------0------0-----|
|-------------------------|----------------------|
|-------------------------|----------------------|

Keep with the pattern!

These are all my words on paper,
Feelings that can't wait till later,
This is my song for you.
When I thought love was hurled,
You helped me break the silence,
Here's my song for you.

And I know we're standing in a
Hurricane, but I know together
We can find a way.
Don't let go, come close,
Can you hear my heart?

For you I'm falling deep i'm lost
In you have found what I've
Been missing.

No one else can feel this space
Cause no one else can take your
Place.

For you I'm falling.
This is my song for you
This is my song
For every dream unwoken,
For every word unspoken,
This is my song for you

And I know we're standing in a
Hurricane, but I know together
We can find a way.
Don't let go, come close,
Can you hear my heart?

For you I'm falling deep i'm lost
In you have found what I've
Been missing.

No one else can feel this space
Cause no one else can take your
Place.

For you I'm falling.
This is my song for you.
You...
For you...
You...

These are all my words on paper,
Feelings that can't wait till later,
This is my song you
Tap to rate this tab
 
# A B C D E F G H I J K L M N O P Q R S T U V W X Y Z