Song name
# A B C D E F G H I J K L M N O P Q R S T U V W X Y Z

Big Wreck - You Caught My Eye tab

You Caught My Eye
Big Wreck

Tuning - modified open G
low to high  C-G-D-G-B-d - then tune 1/2 step down

main riff pt 1
d|------------------|
B|------------------|
G|------------------|
D|------------------|
G|-----0-0--5-------|
C|--0--0-0--5-------|

main riff pt 2
d|------------------|
B|------------------|
G|-----------3------|
D|-----------3------|
G|------5-5--3------|
C|---5--5-5---------|

d|---------------------------------|
B|---------------------------------|
G|---------------------------------|
D|---------------------------------|
G|---2-2-2-2-3-3-3-------0-0-5-----|
C|---2-2-2-2-3-3-3-b5-0--0-0-5-----|

solo over-repeating|ending with
d|-----------------|------------|
B|-----------------|------------|
G|-----------------|------------|
D|-----------------|------------|
G|---0-0-0-5-5-5---|--7-7-7-7---|
C|---0-0-0-5-5-5---|--7-7-7-7---|

end solo over
d|-----------------|
B|-----------------|
G|-----------------|
D|-----------------|
G|---4h5p4-4h5p4---|
C|---4h5p4-4h5p4---|

Tap to rate this tab
# A B C D E F G H I J K L M N O P Q R S T U V W X Y Z