Song name
# A B C D E F G H I J K L M N O P Q R S T U V W X Y Z

Big Wreck - Do What You Will tab

Do What You Will
Big Wreck

Tuning:modified open G 
low to high - C-G-D-G-B-d - then down 1/2 step

only three parts to this song

main riff
d|---------------------------------------|
B|------6-5-6----6-5-6--3----------------|
G|------5-5-5----5-5-5--3----------------|
D|------7-5-7----7-5-7--3----------------|
G|---0--5-5-5-0--5-5-5--3--3-5-3-5-3-----|
C|---0--------0------------3-5-3-5-3-----|

verse
d|----------------------------------------|
B|----------------------------------------|
G|-----------0----------------------------|
D|-----0---0--------0---0-----5-----7-----|
G|--0----0-------0----0-----3-----5-------|
C|------------------------3-----5---------|

bridge
d|-------------------------------------|
B|-------------------------------------|
G|---------6-6-6--1-1-1-8-8-8----------|
D|---------6-6-6--1-1-1-8-8-8----------|
G|---6-6-6-6-6-6--1-1-1-8-8-8----------|
C|---6-6-6-----------------------------|

or
d|-----------------------------------|
B|-----------------------------------|
G|-----------------1-1-1-------------|
D|-----------------1-1-1-------------|
G|---6-6-6--1-1-1--1-1-1--3-3-3------|
C|---6-6-6--1-1-1---------3-3-3------|

*sweet_inc*
Tap to rate this tab
 
# A B C D E F G H I J K L M N O P Q R S T U V W X Y Z